Message Board
TR3 - The Left Hand of Darkness
TR3 - On This Mountain Born in Clouds
Tablature

Decline in Reason
By Tim Reynolds
Tabbed By Mark Schmitz (part 1, 2 and fills) & Jamie McMurrich (part 3 and 4)

Tuning: Drop D

Part 1
e----------------------3-3----------------------5-5--
b----------------------5-5----------------------6-6--
G----------------------5-5---------------------------
D----0-0----7---5---3---------0-0----7---5---3-------
A----0-0----7---5---3---------0-0----7---5---3-------
D--0-0-0--7---5---3---------0-0-0--7---5---3---------


e----------------------3-3-------------------------
b----------------------5-5----------------------3--
G----------------------5-5----------------------2--
D----0-0----7---5---3---------0-0----7---5---3-----
A----0-0----7---5---3---------0-0----7---5---3-----
D--0-0-0--7---5---3---------0-0-0--7---5---3-------


Part 2
e--------------------------------------------------------------
b--------------------------------------------------------------
G--------------------------------------------------------------
D----3-5-7---------------0-0----7---5---3----3-5-7-------------
A--3-------3-5-7-8~-7~---0-0----7---5---3--3-------3-5-7-8~-7--
D------------------------0-0--7---5---3------------------------


Fill 1
e----------------------------------------------
b----------------------------------------------
G----------------------------------------------
D----0-0----7---5---3----3-5-7--2-3-5-7~-5~----
A----0-0----7---5---3--3--------3-5-7-8~-7~----
D----0-0--7---5---3----------------------------


Fill 2
e---------------------------------------
b---------------------------------------
G----5-7-9------------------------------
D----------5-7-8-8~p7~------10----7--5--
A---------------------------10----7--5--
D--5--------------------/10-----7----5--


Fill 3
e-----10-12-13---------------------------------------
b--10----------10-11-13-13p11-11p10------------------
G----------------------------------------------------
D----------------------------------------10----7--5--
A----------------------------------------10----7--5--
D------------------------------------/10-----7----5--


Part 3
e---------------------------------------------------- --------- ---
b---------------------------------------------------- --------- ---
g--------------3-5-7----------------5-7-9------------ ----7-9-10---
d-----3-5-7--3-------------5-7-8--5-------------7-8-10--7------ ---
a---3--------------------5--------------------7------ --------- ---
D-0--------------------0--------------------0-------- --------- ---


e-------- -- ------- -- -
b-------- -- ------- -- -
g-------- -- ----9-10-12-
d-----8-10-12--8---- -- -
a---8---- -- ------- -- -
D-0------ -- ------- -- -


Part 4
e-----0-------0---  -----0--- r    -----0-------0---  -----0--- r
b----3-3-----3-3--  ----3-3-- e    ----3-3-----3-3--  ----3-3-- e
g---5---5---5---5-  ---5---5- p    ---5---5---5---5-  ---5---5- p
d-----------------  -3------- e    -----------------  --------- e
a-0-------3-------  --------- a    -0-------3-------  --------- a
D-----------------  --------- t    -----------------  -3------- t