Message Board
TR3 - The Left Hand of Darkness
TR3 - On This Mountain Born in Clouds
Tablature

Continue
By Tim Reynolds
Tabbed By Mark Schmitz

Tuning: Standard

e---------------------------------------------------3-1-0---------------
B--------6-------------------6---6\3----------6------------3-1-0---0-1--
G----5h7---7----5---7----5h7---7-----0----5h7---7--0-0-0----0-0--2------
D--7----------5---7----7----------------7-------------------------------
A-----------------------------------------------------------------------
E-----------------------------------------------------------------------


e--------1-0---------------5-7-10--------1-0-------------------
B--0-1-3-----3-1h3p1-0-1-3---------0-1-3-----3-1h3p1--0-1-3----
G--4-----------------4-------------4------------------4-----2--
D--0-----------------0-------------0------------------0--------
A--------------------------------------------------------------
E--------------------------------------------------------------


Note: theres a really tough bass part played here, 
alittle too tough to tab out.


Little part (LOTS OF IMPROV.)
e------1-----------------3-----------------3------
B--2/3---2/3---------4/5---4/5---------2/3---3-1--
G--3/4---3/4-3-------5/6---5/6-5-------3/4--------
D-------------------------------------------------
A--------------0-2-3-------------0-2-3------------
E-------------------------------------------------






-------------
ALTERNATE TAB
-------------

Continue
By Tim Reynolds
Tabbed by lowlight


intro

e----------------------------------------------------
B----1---3-----------------1---3-3/4\3p1-------------
G--2-----0-----0---0-----2-------0-------------0-----
D--0-----------2---3-----0-----------------2---3-----
A----------------------------------------------------
E--3---3---3-3---3-----3-----3---3-------3---3-------



e------------------------3-1-0-----------------------
B----1-3-3---------------------3-1-0--1-3------3-----
G--2-----0-----0---0----0-0-0-------0-------0--------
D--0-----------2---3---------------------------------
A----------------------------------------------------
E--3-----3---3---3----3----------3------------3------



e----------------------------------------------------
B---------------------1-3-3~ /4\3p1------------------
G--------0---------2----0-0-------------0---0---0----
D----2---3---------0--------------------0---2---3----
A------------3---------------------------------------
E--3---3---3-----3------3-3-----------3---3---3---3--



e--------------------/3-1-0--------------------------
B--1--3-3------3-------------3-1-0-1-3---------------
G--0--0-0----0------0--0-0-0-------0-----------------
D----------------------------------------------------
A----------------------------------------------------
E--3--3-3--3-----3------------3----3-----------------


main

e--------------1---0------------------------5---7---10---------
B--0---1---3---1-------3-1h3p1--0---1---3----------------------
G------0-----0---2---0---2----------------0-2------------------
D--------0-----3----------------------0-----3-7---5------------
A--2-3-------------------3------2-3----------------------------
E--3----------------------------3------------------------------


e--------------1---0-------------------------------------------
B--0---1---3-----------3-1h3p1--0---1---3----------------------
G------------0---2---0--------------0------2~ -----------------
D--------0-----3----------------------0------0-----------------
A--2-3-------------------3------2-3----------------------------
E--3----------------------------3--------------1^--------------



e--------------1---0------------------------5---7---10---------
B--0---1---3---1-------3-1h3p1--0---1---3----------------------
G------0-----0---2---0---2----------------0-2------------------
D--------0-----3----------------------0-----3-7---5------------
A--2-3-------------------3------2-3----------------------------
E--3----------------------------3------------------------------


e--------------1---0-------------------------------------------
B--0---1---3-----------3-1h3p1--0---1---3----------------------
G------------0---2---0--------------0------2~ -----------------
D--------0-----3----------------------0----0~ -----------------
A--2-3-------------------3------2-3----------------------------
E--3----------------------------3----------3~ -----------------


outro

e----------------------------------------------------
B----1---3-----------------1---3-3/4\3p1-------------
G--2-----0-----0---0-----2-------0-------------0-----
D--0-----------2---3-----0-----------------2---3-----
A----------------------------------------------------
E--3---3---3-3---3-----3-----3---3-------3---3-------



e------------------------3-1-0-----------------------
B----1-3-3---------------------3-1-0--1-3~ ----------
G--2-----0-----0---0----0-0-0-------0----------------
D--0-----------2---3---------------------------------
A----------------------------------------------------
E--3-----3---3---3----3----------3-------------------