Message Board
TR3 - The Left Hand of Darkness
TR3 - On This Mountain Born in Clouds
Tablature

Vantage Point
By Tim Reynolds
Tabbed By lowlight

Tuning: Standard

0:01
e:|-----0~------4~--------------0~------4~-----------
b:|-----0~------5~-----4~-------0~------5~-----4~----
G:|-----3~----4*-------4~-------3~----4*-------4~----
D:|---4-----0--------4*-------4*----0--------4*------
A:|--4-------------0---------4-------------0---------
E:|-2---------------------0-2---------------------0--

e:|-----0~--------4p2-0-----------------------0~-----0~-----0~--
b:|-----0~------3-------3-------3p2-0---------0~-----0~-----0~--
G:|-----3~----2---------------2-------2-------1~-----4~-----5~--
D:|---4*----0---------------2---------------4--------5~---5-----
A:|--4--------------------0-------------2----------5-----3------
E:|-2-------------------------------------0-------3-------------

e:|-----0~------4~-------------0~------4~---------
b:|-----0~------5~-----4~------0~------5~-----4~--
G:|-----3~----4*-------4~------3~----4--------4~--
D:|---4-----0--------4*------4-----0--------4-----
A:|--4-------------0--------4-------------0-------
E:|-2----------------------2----------------------

0:29
e:|-----4---0-----5---0-----7---0-----0--0-----4---0-----5---0-----2---0-----0---0--
b:|---------------------------------------------------------------------------------
G:|-4---------6---------7------------------4---------6---------2--------------------
D:|---------------------------------------------------------------------------------
A:|---------------------------------------------------------------------------------
E:|-0-0---0---0-0---0---0-0---0---0-0--0---0-0---0---0-0---0---0-0---0---0-0---0----

e:|-----4---0-----5---0-----7---0--------------4---0-----5---0-----2---0-----0---0-----2---0-----0---0-----2---0-----0---0-----2---0----
b:|-------------------------------------------------------------------------------------------------------------------------------------
G:|-4---------6---------7------------------4---------6---------2-------------------2-------------------2-------------------2------------
D:|-------------------------------------------------------------------------------------------------------------------------------------
A:|-------------------------------5h7---------------------------------------------------------------------------------------------------
E:|-0-0---0---0-0---0---0-0---0-------0-0--0-0---0---0-0---0---0-0---0---0-0---0---0-0---0---0-0---0---0-0---0---0-0---0---0-0---0---0--

0:48
e:|----------------------------------------------------------------------------------------------(5)--
b:|---------------------------------------------------------------------------------------------------
G:|-----------------------------------2------------------------------------------------2---1-1~-------
D:|------2---4---2-2--------------4---4---2-2--------------2---4---2-2-------------4---4---2-2~-------
A:|------2---5---4-4------(7)-----5-------2-2-------7------2---5---4-4------(7)----5------------------
E:|-0*-0---0---0-----0-5h7---0*-0---0---0-----0-5-7---0*-0---0---0-----0-5h7---x-0---0---0-----0------

e:|------------------------------------------------------------------------------------------
b:|------------------------------------------------------------------------------------------
G:|------------------------------------2----------------------------------2---1-----4---2----
D:|------2---4---2-2---------------4---4---2-2--------------2---4---2-2---4---2-----6---4----
A:|------2---5---4-4--------7------5-----------------5------2---5---4-4----------------------
E:|-0*-0---0---0-----0*-5-7---0*-0---0---0-----0-5h7---0*-0---0---0-----0---0---0-0---0---0--

1:00
e:|-----4---0-----5---0-----7---0--------------4---0-----5---0-----2---0-------------
b:|----------------------------------------------------------------------------------
G:|-4---------6---------7------------------4---------6---------2---------------------
D:|----------------------------------------------------------------------2h4p2p0h2~--
A:|-------------------------------5h7------------------------------------------------
E:|-0-0---0---0-0---0---0-0---0-------0-0--0-0---0---0-0---0---0-0---0---------------

e:|-----4---0-----5---0-----7---0--------------4---0-----5---0-----2---0-----0---0-----2---0-----0---0-----2---0-----0---0-----2---0-----0--
b:|-----------------------------------------------------------------------------------------------------------------------------------------
G:|-4---------6---------7------------------4---------6---------2-------------------2-------------------2-------------------2----------------
D:|-----------------------------------------------------------------------------------------------------------------------------------------
A:|-------------------------------5h7-------------------------------------------------------------------------------------------------------
E:|-0-0---0---0-0---0---0-0---0-------0-0--0-0---0---0-0---0---0-0---0---0-0---0---0-0---0---0-0---0---0-0---0---0-0---0---0-0---0---0-0----

1:20
e:|-----7---7---7---7\5---5--------------5---5---5---5p3---3-------------
b:|----------------------------------------------------------------------
G:|-----7---7---7---7\5---5--------------5---5---5---5p4---4-------------
D:|------------------------------------------------------------------5~--
A:|---------------------------3h5~-3-------------------------------7-----
E:|-0-0---0-0-0---0-0---0---0--------0-0---0-0-0---0-0---0---0-5/7-------

e:|-----7---7---7---8\5---5----------------5---5---5---5p3---3------------
b:|--------------------------------------------------------------(12)-----
G:|-----7---7---7---9\5---5----------------5---5---5---5p4---4------------
D:|-----------------------------------------------------------------------
A:|---------------------------3h5-3p0--------------------------------(7)--
E:|-x-0---0-0-0---0-0---0---0----------0-0---0-0-0---0-0---0---0----------

1:32
e:|-0---3--12---12---10\---7---7---7----0---3--/12---12---10\---5---5---5p3-7~---5p3-0~---(5)--
b:|--------------------------------------------------------------------------------------------
G:|-0---4--12---12---11\---7---7---7----0---4--/12---12---11\---5---5---5p4-7~---5p4-0~--------
D:|--------------------------------------------------------------------------------------------
A:|--------------------------------------------------------------------------------------------
E:|-0-0--0-0--0----0-0-------7-7-7---7--0-0---0-0--0----0-0---x---5-5-x-0-----0--0-----0-------

1:45
e:|-----4---0-----5---0-----7---0--------------4---0-----5---0-----2---0---------------
b:|------------------------------------------------------------------------------------
G:|-4---------6---------7------------------4---------6---------2-----------------------
D:|----------------------------------------------------------------------2h4p2p0h2~p0--
A:|-------------------------------5h7-7------------------------------------------------
E:|-0-0---0---0-0---0---0-0---0---------0--0-0---0---0-0---0---0-0---0-----------------

e:|-----4---0-----5---0-----7---0--------------4---0-----5---0-----2---0-----0---0-----2---0-----0---0-----2---0-----0---0-----2---0-----0--
b:|-----------------------------------------------------------------------------------------------------------------------------------------
G:|-4---------6---------7------------------4---------6---------2-------------------2-------------------2-------------------2----------------
D:|-----------------------------------------------------------------------------------------------------------------------------------------
A:|-------------------------------5h7-------------------------------------------------------------------------------------------------------
E:|-0-0---0---0-0---0---0-0---0---0---0-0--0-0---0---0-0---0---0-0---0---0-0---0---0-0---0---0-0---0---0-0---0---0-0---0---0-0---0---0-0----

2:02
e:|---0-2-3---3-2-0---0-2-3---0-2-3---3-2-0---0-2-3---0-2-3---3-2-0---0-2-3---0-2-3---3-2-0---0-2-3--
b:|--------------------------------------------------------------------------------------------------
G:|--------------------------------------------------------------------------------------------------
D:|--------------------------------------------------------------------------------------------------
A:|-2-------2-------2-------3-------3-------3-------0-------0-------0--------------------------------
E:|-------------------------------------------------------------------------3-------0-------0--------

e:|---0-2-3---3-2-0---0-2-3---0-2-3---3-2-0---0-2-3---0-2-3---3-2-0---0-2-3---0-2-3---3-2-0---0-2-3~--
b:|---------------------------------------------------------------------------------------------------
G:|---------------------------------------------------------------------------------------------------
D:|---------------------------------------------------------------------------------------------------
A:|-2-------2-------2-------3-------3-------3-------0-------0-------0---------------------------------
E:|-------------------------------------------------------------------------3-------0-------0---------

2:16
e:|-0---3--12---12---10\---7---7---7--0---3--/12---12---10\---5---5---5p3-7~--------5p3-0~--------------
b:|----------------------------0------------------------------------------------------------(12)--------
G:|-0---4--12---12---11\---7---7---7--0---4--/12---12---11\---5---5---5p4-7~--------5p4-0~--------(12)--
D:|-----------------------------------------------------------------------------------------------------
A:|---------------------------------------------------------------------------5h7--------------(7)------
E:|-0-0--0-0--0----0-0-------7---7----0-0---0-0--0----0-0-------5---x-0-----0-----0-0-----0-------------

e:|-0---3--12---12---10\---7---7------0---3--/12---12---10\---5---5---5p3-7~---5p3-0~---
b:|---------------------------------------------------------------0---------------------
G:|-0---4--12---12---11\---7---7------0---4--/12---12---11\---5---5---5p4-7~---5p4-0~---
D:|---------------------------------------------------------------2---------------------
A:|--------------------------------7----------------------------0---0-------------------
E:|-0-0--0-0--0----0-0---0---7-7-7----0-0---0-0--0----0-0-------------0-----0--0-----0--

2:36
e:|------------------------------------------------------------------------------------------------------
b:|------------------------------------------------------------------------------------------------------
G:|-----------------------------------2-----------------------1-----------------------2---1~-------------
D:|------2---4---2-2--------------2---4---4-4-------------2---2---4-4-------------4---4---2~-------------
A:|------2---5---4-4------(7)-----2-------5-5-------5-7---2-------5-5------(7)----5-----------------(7)--
E:|-0*-0---0---0-----0-5h7---0*-0---0---0-----0-5h7---0-0---0---0-----0-5h7---x-0---0---0---0*-0-5h7-----

e:|-----------------------------------------------------------------------------------------------------
b:|-----------------------------------------------------------------------------------------------------
G:|-------------------------------------2----------------------------------1---------2---1-----4---2----
D:|------2---4---2-2----------------2---4---4-4--------------2---4---2-2---2---4-----4---2-----6---4----
A:|------2---5---4-4--------(7)-----2-------5-5-------5------2---5---4-4-------5------------------------
E:|-0*-0---0---0-----0*-0-(7)--0*-0---0---0-----0-5h7---0*-0---0---0-----0---0---0-0---0---0-0---0---0--

2:50
e:|-----------------------------------------------------------
b:|-----------------------------------------------------------
G:|-----------------------------------------------------------
D:|-----------------------------------------------------------
A:|-----------------------------------------------------------
E:|-0-12-0-12-10-0-10-12-0-12-10-0-10-12-0-12-10-0-10-12-12~--

e:|------------------------------------------------------------------------
b:|------------------------------------------------------------------------
G:|------------------------------------------------------------------------
D:|------------------------------------------------------------------------
A:|------------------------------------------------------------------------
E:|-0-10-12-0-12-10-0-10-12-0-12-[10-10]-0-10-12-0-[12-12]-10-0-10-12-12~--

e:|------------------------------------------------------------------------
b:|------------------------------------------------------------------------
G:|------------------------------------------------------------------------
D:|------------------------------------------------------------------------
A:|------------------------------------------------------------------------
E:|-0-10-12-0-12-[10-10]-0-10-12-0-[12-12]-10-0-10-12-0-12-10-0-10-12-12~--

e:|-------------------12~--
b:|-------------------10~--
G:|-------------------11~--
D:|-------------------12~--
A:|------------------------
E:|-0-0-0-0-0-0-0-0-0------

3:03
e:|-----4---0-----5---0-----7---0--------------4---0-----5---0-----2---0-----------------
b:|--------------------------------------------------------------------------------------
G:|-4---------6---------7------------------4---------6---------2-------------------------
D:|----------------------------------------------------------------------2h4p2p0h2~p0----
A:|-------------------------------5h7-------------------------------------------------2--
E:|-0-0---0---0-0---0---0-0---0-------0-x--0-0---0---0-0---0---0-0---0-------------------

e:|-----4---0-----5---0-----7---0--------------4---0-----5---0-----2---0-----0---0-----2---0-----0---0-----2---0-----0---0-----2---0-----0--
b:|-----------------------------------------------------------------------------------------------------------------------------------------
G:|-4---------6---------7------------------4---------6---------2-------------------2-------------------2-------------------2----------------
D:|-----------------------------------------------------------------------------------------------------------------------------------------
A:|---------------------------------5h7-----------------------------------------------------------------------------------------------------
E:|-0-0---0---0-0---0---0-0---0---0-----0--0-0---0---0-0---0---0-0---0---0-0---0---0-0---0---0-0---0---0-0---0---0-0---0---0-0---0---0-0----

3:20
e:|-----7---7---7---7\5---5----------------5---5---5---5p3---3-------------
b:|------------------------------------------------------------------------
G:|-----7---7---7---7\5---5----------------5---5---5---5p4---4-------------
D:|--------------------------------------------------------------------5~--
A:|---------------------------3h5~-3\2-0-----------------------------7-----
E:|-0-0---0-0-0---0-0---0---0------------0---0-0-0---0-0---0---0-5/7-------

e:|-----7---7---7---8\5---5----------------5---5---5---5p3---3-----------
b:|----------------------------------------------------------------------
G:|-----7---7---7---9\5---5----------------5---5---5---5p4---4-----------
D:|----------------------------------------------------------------2~----
A:|---------------------------3h5~-3p2-0-------------------------2-------
E:|-0-x---0-0-0---0-0---0---0------------0---0-0-0---0-0---0---0------0--

3:33
e:|-0---3--12---12---10\---7---7---7----0---3--/12---12---10\---5---5---5p3-7~---5p3-0~---
b:|-----------------------------------------------------------------0---------------------
G:|-0---4--12---12---11\---7---7---7----0---4--/12---12---11\---5---5---5p4-7~---5p4-0~---
D:|-----------------------------------------------------------------2---------------------
A:|---------------------------------------------------------------0---0-------------------
E:|-0-0--0-0--0----0-0---0---7-7-7---7--0-0---0-0--0----0-0-------------0-----0--0-----0--

e:|-0---3--12---12---10\---7---7---7----0---3--/12---12---10\---5---5---5---5p3-7~---5p3-0~---5p3-7~---5p3-0~---
b:|-------------------------------------------------------------------------------------------------------------
G:|-0---4--12---12---11\---7---7---7----0---4--/12---12---11\---5---5---5---5p4-7~---5p4-0~---5p4-7~---5p4-0~---
D:|-------------------------------------------------------------------------------------------------------------
A:|-------------------------------------------------------------------------------------------------------------
E:|-0-0--0-0--0----0-0-------7-7-7---7--0-0---0-0--0----0-0-------5-5-5---5-0-----0--0-----0--0-----0--0-----0--

ends ~4:00

~ = vibrato
() = harmonic
* = snap the string so higher of the pair is dominant


Every version of this song is of course pretty different. This follows closely the 9-22-06 and 9-29-06 audio. Video from 7-15-2005 used as reference.