Message Board
TR3 - The Left Hand of Darkness
TR3 - On This Mountain Born in Clouds
Tablature

Classical Tune
By Tim Reynolds
Tabbed By Mark Schmitz

Tuning: Drop D

It's a really fast song and there are no stops in it really.
"+" is when Tim sort of snaps the note when he plays it 


Section A 
e----------------------------------------------------------------------- 
B----------0-1-3p1p0---0------------------------------------------------ 
G--------------------2--------0-2-4-0-------2-4-5-4-2------------------- 
D--5-5--------------------------------2---------------5-4-0---0-2-4-5--- 
A------5------------------5-------------3------------------------------- 
E--------5------------------5------------+5----------------+0----------- 

 
e----------------------- 
B----------------------- 
G-2-4-5p4-5-2-5p4-5-2--- 
D----------------------- 
A----------------------- 
E----------------------- 


e--------------------------------------------------------- 
B--------------------------------------------------------- 
G-+0-----0-4p2-4-0-4p2-4-0----4p2-0---4-5-7----0-------0-- 
D----2-4-------------------+0-------0-------+0---0---0---- 
A--------------------------------------------------2------ 
E--------------------------------------------------------- 

 
e--------------------------------------------------------0-------0-- 
B--------------5-2---0-2-3p0-------3-3p2p0-3-2-5-3-3p2-3---3p2-3---- 
G--0-2-4p2p0-------2---------2-0------------------------------------ 
D-----------+0------------------+0---------------------------------- 
A------------------------------------------------------------------- 
E------------------------------------------------------------------- 
 

e---------------------------- 
B---------------------------- 
G---------------------------- 
D----5-4-2-4p2-4-0-4p2-4-0--- 
A--0------------------------- 
E---------------------------- 


e---------------------------- 
B----------3p2-0---3-2-0----- 
G----------------2-------2--- 
D----4-2-0------------------- 
A---------------------------- 
E--0------------------------- 

 
e---------------------------------------------------------- 
B---------------------------------------------------------- 
G---------------------------------------------------------- 
D--0-2p0-2-0-4p0-4-0-5p0-5-0-7p0-7-0-9p0-9-0-11p0-11-0-12-- 
A---------------------------------------------------------- 
E---------------------------------------------------------- 

 
e------------------------------------------------------- 
B------------------------------------------------------- 
G--4-2-----------------------------2p0-4-2-0------------ 
D------5-4-2--------4h5~-4h5p4p2~------------4-2-0------ 
A------------5-4-0---------------------------------4-5-- 
E----------------------------------------------------0-- 

 
Then Repeat entire section 
Each time threw takes about 30sec. that's how fast Tim plays it.


Section B 
e------------------------------------------------------------ 
B----------------------3---------------------------3--------- 
G--4p2-2-----------------2-----------------2---------2-0----- 
D--------4-2-4-5-4-2-0-----4-----------4-5---5-4-2------+2--- 
A----------------------------2-4-5-4-2----------------------- 
E------------------------------------------------------------ 

 
e----------------------------------- 
B----------------------------------- 
G--2-4-5-4-2--------2-4-5-4-2------- 
D------------5-4-2------------5-4--- 
A--------------------------------+5- 
E----------------------------------- 

 
e----------------------------------------------------------- 
B------------------------------4tr5------------------------- 
G--5-4-2-0-------2-------4-2-5------2p0-4-2-0--------------- 
D----------5-4-5---5-4-5----------------------4-2-0--------- 
A----------------------------------------------------4--5--- 
E-------------------------------------------------------0--- 

 
Repeat Part B with slight varition, it takes about 20secs to play the 
section, then go back to section A.  The entire song is short, only 
2:30, and it's very very fast.