Message Board
TR3 - The Left Hand of Darkness
TR3 - On This Mountain Born in Clouds
Tablature

The Messenger
By Tim Reynolds
Tabbed By lowlight

Tuning: Standard

e:|------0-------0-------------0--------0---------------------
b:|----1-1-3-3-1-1---3-1h3-----3------1-1-3-3-1-1-----1---1---
G:|---2----0-0-0-2---0---------0-----2--0---0-0-2-----2---2---
D:|--2-------------------------0----2-------2---3-----3---3---
A:|-0----3---3---------------2-----0----3-----------3---------
E:|--------------1-1-------3-----3--------------1-1-----1-----

e:|------0-------0--------------0--------0--------------------
b:|----0-1-3-3-1-1---3-1h3-3----3------1-1-3-3-1-1-----1---1--
G:|---2------0-0-2---0----------0-----2--0-0-0---2-----2---2--
D:|--2--------------------------0----2-------2---3-----3---3--
A:|-0----3---3----------------2-----0----3-----------3--------
E:|--------------1-1--------3-----3--------------1-1-----1----

e:|-----0-0-0-------------------------------0-0-0--------------------------------0-x---------0-0---------------------------------------
b:|-----1-1-1--3-3-1-1-----1-----1---1------1-1-1-3-3-1-3---3--3---5-3-1-----1-------3---1-------3-3-3-1-1-1---1-----1--1----1---1-----
G:|-----0-0-0--2-2-0-2-----0h2---0---2------0-0-0-2-2-0-0---0--0---------2-x-2-------------2-----2-2-2---0-0---0-----0--0----0---0-----
D:|---2-2-2-2--------3---3---------3-3------2-2-2------------------------2-x-2-----------------------------2-----------------2---2-----
A:|-3-3-3-3-3--------------3-------3-3--3-3-3-3-3-------2------------0---0-x-----------------------------3-3-3---------0-3-3---3---2~--
E:|------------------1-1-------1-----1------------------3-3---3-3--4-----------0---x---1---------3---------------3-3-------------------

e:|-------0-------0-------------0------------0-------------------------------------------------
b:|-----1-1-3-3-1-1---3-1h3-----3----------1-1-3-3-1-1---1---------10----10-10-----------------
G:|----2----0-0-0-2---0---------0---------2--0---0-0-2---2---------10h12-10-12-10--------------
D:|-----------2-2---------------0----------------2---3---3---------------------10h12p10--------
A:|-0-0---3---3---------------2-------0-0----3---3-------3--/10-12----------------------12-10--
E:|---------------1-1-------3-----0-3----------------1-1---------------------------------------

e:|------0-------0--------------0--------0----------------------------------------------
b:|----1-1-3-3-1-1---3-1h3-3----3------1-1-3-3-1-1---1--------10----10-10---------------
G:|---2--0-0-0-0-2---0----------0-----2--0-0-0---2---2--------10h12-10-12-10------------
D:|--2---2-2-2-2----------------0----2-------2---3---3--------------------10h12p10------
A:|-0----3-3-3----------------2-----0----3-----------3--10-12----------------------12\--
E:|--------------1-1--------3-----3--------------1-1------------------------------------

e:|-----0-0-0-------------------------------0-0-0-----------------------------0-x-----------0--------------------------------------
b:|-----1-1-1--3-3-1-1-----1-----1---1------1-1-1-3-3-1-3---3-3-5-3-1-----1-------3---1---1---3-3-3-0-1-1---1-----1--1----1-----3--
G:|-----0-0-0--2-2-0-2-----0h2---0---2------0-0-0-2-2-0-0---0-0-4-2---2-x-2-------------2-2---2-2-2---0-0---0-----0--0----0-----0--
D:|---2-2-2-2--------3---3---------3-3------2-2-2---------------------2-x-2-----------------------------2-----------------2--------
A:|-3-3-3-3-3--------------3-------3-3--3-3-3-3-3-------2---------0---0-0-----------3-----------------3-3-3---------0-3-3---3-2----
E:|------------------1-1-------1-----1------------------3-3---3-4-----------0---x---------1---3---------------3-3------------------

e:|-----7h8------0-----1h3------------------------8-----8-----------------------------
b:|--------------1-------------3-1-0-1-----1-8h10-------8------3/5p3------------------
G:|---5----------0---2-----0---0-0-0-------2------------9----2-------5-2-0h2p0--------
D:|--------------2---3---------------------2------------10---3-----------------5-2p0--
A:|----------3-3-----------------------0-0-0-----------------3------------------------
E:|-5-5------------1-1-----3-3----------------------8-8----1-1------------------------

e:|-----0-----3/5------------------------0-----0---/13-12-10------------------------
b:|-----1-----1-------1-------/10-8------1-----1-------------13-10------------------
G:|-----2-------------2---0--------------2-----0-2-----------------12-10h12p10------
D:|-----2-------------3-0--------------2-2-----2-3-----------------------------12\--
A:|-0-0-0-3-3-------3-3-----2--------0-0---3-3-3-3----------------------------------
E:|---------------1---1---3----------------------1----------------------------------

e:|-----0-0-0-----------------------------------------------0-0-0-----------------------------0-x-------------0------------
b:|-----1-1-1--3-3-1-1---1----------------------------------1-1-1-3-3-1-3---3-3-5-3-1-----1-------3---1---------3-3-3-0-1--
G:|-----0-0-0--2-2-0-2---0h2--------10-------10-10----------0-0-0-2-2-0-0---0-0-4-2---2-x-2-------------2-2-----2-2-2---0--
D:|---2-2-2-2--------3--------------10h12p10-12-10--------2-2-2-2---------------------2-x-2---------------3----------------
A:|-3-3-3-3-3----------------/10-12----------------12\--3---3-3-3-------2---------0---0-0-----------3-------------------3--
E:|------------------1-1------------------------------------------------3-3---3-4-----------0---x---------1-----3----------

e:|---------------------------------------------8h10~-10h12~-8h10~-----------------------------------
b:|-/10~----------------------------------8h10~--------------------8h10~-8~~-6~~-6-5~~-5-3~~--0~-----
G:|------7h9~-5h7~----------------------------------------------------------------------------1~-5~--
D:|----------------5h7~--------------------------------------------------------------------------2~--
A:|---------------------5h7~-3h5~-3~-----------------------------------------------5~~-----------0~--
E:|----------------------------------3h5~------------------------------------------------3~~--4~-----

e:|----10/12~-10---------------12~-10-8-------------------
b:|-10-----------13-10~-10~-10----------10~-3~-----8/10~--
G:|---------------------10~-----------------4~-5-7--------
D:|---------------------10~-----------------5~------------
A:|---------------------8~------------------5~------------
E:|-----------------------------------------3~------------

e:|------0-------0-------------0--------0--------------------
b:|----1-1-3-3-1-1---3-1h3-----3------1-1-3-3-1-1-1/6~-6h8~--
G:|---2----0-0-0-2---0---------0-----2--0---0-0-2------------
D:|--2-------------------------0----2-------2---3------------
A:|-0----3---3---------------2-----0----3--------------------
E:|--------------1-1-------3-----3--------------1------------

e:|--------0-------0--------------0--------0---------/13-13---------------------------
b:|------1-1-3-3-1-1---3-1h3-3----3------1-1-3-3-1-1-/10----10----10------------------
G:|---2--------0-0-2---0----------0-----2--0-0-0---2--------10h12-10h12p10-10-10------
D:|--2----------------------------0----2-------2---3-----------------------12-10------
A:|-0--0---3---3----------------2-----0----3-------------------------------------12\--
E:|----------------1-1--------3-----3--------------1----------------------------------

e:|-----0-------------------------------------0-0-0---------------------------------0---------0-----------------0---------0-0--------
b:|-----1-1-1--3-3-1-1-----1-----1-----1------1-1-1-3-3-1-3---3--3--5-3-1---1-1-1-----3-1-------3-3-3-1-1-1---1---3-1---------3-3-3--
G:|-----0-0-0--2-2-0-2-----0h2---0-----2------0-0-0-2-2-0-0---0--0--4-----2-2-2-2-----2---2-2---0-0-----0-0---0-------2-------2------
D:|---2--------------3---3---------3---3------2-2-2-----------------------2-2-2-2-----------3-------------2---2----------------------
A:|-3---3-3-3--------------3-------3---3--3-3-3-3-3-------2-----------0---0---0-0-----------3-----------3-3-3------------------------
E:|------------------1-1-------1-----1--------------------3-3----3--4-------------0---1-----1---3-----------------1-----1-----3------

e:|-----------------8~-12~-15~-17~-------------------------------------
b:|-------------10~-----------------13~-12~-10~-8~-6~-5~-3~-1~-0~-1----
G:|----------9~-----------------------------------------------------2~-
D:|-------7~-----------------------------------------------------------
A:|-0~-7~-----------------------------------------------------------0~-
E:|--------------------------------------------------------------------

~ = vibrato/swell

On the solo sections and improv use volume swells and heavy vibrato where indicated.