Message Board
TR3 - The Left Hand of Darkness
TR3 - On This Mountain Born in Clouds
Tablature

Delicate Balance
By Tim Reynolds
Tabbed By Jared Susney

Tuning: Standard

|-----0--------0-------------|--12-7-----------12-8-------------0-0--|
|----0-0----0-1-1------3---1-|-------7--------------10---------------|
|-1-2---2-2------2-2s4---2---|---------9-5-------------9-5-----------|
|----------------------------|--------------7--------------7---------|
|-2-------0------------------|----------------7-0------------7-5-3---|
|----------------------------|---0-----------------------------------|

|-----0-----0-------------|--12-7-----------12-8-------------0-0--|
|----0-0-----1------3---1-|-------7--------------10---------------|
|-1-2---2-----2-2s4---2---|---------9-5-------------9-5-----------|
|---------2---------------|--------------7--------------7---------|
|-2-------0---------------|----------------7-0------------7-5-3---|
|-------------------------|---0-----------------------------------|

|-----0--------0-------------|--12-7-----------17-12-----0---------------|
|----0-0----0-1-1------3---1-|-------7--------------13-----1-------3---1-|
|-1-2---2-2------2-2s4---2---|----------9-5------------14----2-2s4---2---|
|----------------------------|--------------7----------------------------|
|-2-------0------------------|----------------7-0------------------------|
|----------------------------|---0---------------------------------------|

|-----0-----0-------------|--12-7-----------17-12----0---------------|
|----0-0-----1------3---1-|-------7--------------13----1-------3---1-|
|-1-2---2-----2-2s4---2---|----------9-5-----------14----2-2s4---2---|
|---------2---------------|--------------7---------------------------|
|-2-------0---------------|----------------7-0-----------------------|
|-------------------------|---0--------------------------------------|

|--------------------------------------3-3-3-3-3-3--3-3-3-3-3-3-----------|
|-0-1-3-1-0-1-3-1-0-1-3-4-4-4--4--4---3-3-3-3-3-3--4-4-4-4-4-4------------|
|---------------------0-0-0-0--------4-4-4-4-4-4--5-5-5-5-5-5-------------|
|-----------------------------3--1-----------------5---5---5-------6---4--|
|---------------------3---3-----------5---5---5--3---3---3-----5s7---5----|
|-3---3---3---3---3-----------------3---3---3-----------------------------|

|-------------------------2------2-2-2-2-2-2--2-2-2-2-2-2-----------|
|-0h1h3-1-0h1h3-0---2-3-3---3---2-2-2-2-2-2--3-3-3-3-3-3------------|
|-----------------4------------3-3-3-3-3-3--4-4-4-4-4-4-------------|
|-----------------------4--------------------4---4---4-------6---4--|
|-----------------2-------------4---4---4--2---2---2-----5s7---5----|
|-2-----2-2-----2-------------2---2---2-----------------------------|

|-0-2-4-5-7-8-7-5-8--0-0-0-2-4-5-7-8-7--5-5--0--0-|
|-------------------------------------------------|
|-1-1-4-5-7-9-7-5-9------1-1-4-5-7-9-7--5-5--0--0-| play 2ce (Beatles much, Tim?)
|-------------------------------------------------|
|-2-----------0-----5-3--2-----------0-0----5--3--|
|-----4-5-7-0-----0----------4-5-7-0--------------|

|-------0-2------------0--------------------|-------0-2-----------0--------0-2-5-7---|
|---2-3-----3-0-2-3---3-----2-3-0----0---0--|---2-3-----3-0-2-3--3-----2-3---------7-|
|-4-----------0------0----4-----0---0---0---|-4-----------0-----0----4-------------7-|
|-----4-------2-----2---------4-2--2---2----|-----4-------2----2---------4---------5-|
|-2-----------2---------2-2-----2-2---------|-2-----------2--------2-2-------------7-|
|-------------------------------------3---0-|----------------------------------------|


|-------0-2------------0--------------------|-------0-2-----------0--------0-2-5-7-----7--|
|---2-3-----3-0-2-3---3-----2-3-0----0---0--|---2-3-----3-0-2-3--3-----2-3---------7-7----|
|-4-----------0------0----4-----0---0---0---|-4-----------0-----0----4-------------7-7-7--|
|-----4-------2-----2---------4-2--2---2----|-----4-------2----2---------4---------5-5----|
|-2-----------2---------2-2-----2-2---------|-2-----------2--------2-2-------------7-7----|
|-------------------------------------3---0-|------------------------------------------0--|

|---------0-1-----------------------|-----------------------------------|
|---0-1-3-----5-------5-------5-----|---------3-4-3-------3-------3-----|
|-2-----------5---5---5---5---5-5-5-|-----3-5-----3---3---3---3---3-3-3-|
|-------------3---3-------3-----3-3-|-5-7---------1---1-------1-----3-3-|
|-0-----------5-----5-------5-------|-------------3-----3-------3-------|
|---------------5-------5-------5-4-|---------------3-------3-------3-2-|


|------------------------------------|-------------------------|
|---------1-2-2-------2-------2------|-1-----1-----3-----0-----|
|-----1-3-----2---2---2---2---2-2-2--|---0-----2-----0-----1---| (back to Beatlemania!)
|-3-5---------0---0-------0-----0-0--|-----2-----3-----0-----2-|
|-------------2-----2-------2--------|-3-----------------------|
|---------------2-------2-------2-1--|-------1-----3-----0-----|