Message Board
TR3 - The Left Hand of Darkness
TR3 - On This Mountain Born in Clouds
Tablature

Bach Piece
By Tim Reynolds
Tabbed By Travis Moore

Tuning: Standard

e|------4h5p4-----7--------12-9--------------------|
b|--5-7-------5-7------4--------10^^-10h12p10-9----|
g|-------------------4-----------------------------|
d|------------------------------11^^-9-------------|
a|--7--------------6----------------------------7--|
e|-------------------------9------------------7----|


e|----9--9p7------------------------5-----------|
b|-----------10\9--9-------------------9--9--7--|
g|--------------------9--9p8--9--4-----------8--|
d|--6-7------7-----7--9--7----6-----4--9--9--7--|
a|-------0-----------------------6-----7--------|
e|----------------------------------------7--7--|
  (this one is tough...dont know if i got it)

e|--------4h5p4-----7------------|
b|--5--7---------5-----5---------|
g|------------------------7--6---|
d|--6---------------6--4--6--7---|
a|-------------------------------|
e|-------------------------------|


e|--------6h7p6-----9--------------|
b|--7--9---------7-----------------|
g|------------------------9-----8--|
d|--8---------------8-----6--8--9--|
a|---------------------9-----------|
e|---------------------------------|


e|-----------------4-------4--|
b|--------10--9p7--------5----|
g|----------------------------|
d|--9------------------6------|
a|-----6------7----7-7--------|
e|--------7-------------------|


e|--16--14--11--12------9------------------------|
b|------------------12--------10--9--7--5-----5--|
g|-------------------------9------9-----------4--|
d|----------------------7------------7--------6--|
a|------12--11-----------------------------7--7--|
e|--------------------------------7--7--------0--|


e|-------------------------------------------|
b|--5---5--8--7---7--------4--7-----5--5-----|
g|----4-------4-4----------------7--7--6--2--|
d|--5----------------8--7--7--------7--------|
a|------------7------7--6-----6--7--7--7--3--|
e|-------------------------------------------|


e|--5--3--2h3p2h3p2h3p2--------------2--5-----------|
b|-----------------------5--5--4--5--------8--8--7--|
g|-----------------------------2--------------8-----|
d|-----------------------------------1--7--9--7--7--|
a|--------------------------2-----2-----------------|
e|--------------------------------------------7--7--|