Message Board
TR3 - The Left Hand of Darkness
TR3 - On This Mountain Born in Clouds
Tablature

Impermanence
By Tim Reynolds
Tabbed By Mark Schmitz

Tuning: Standard

e-----------------------<7>--
B-------------------<7>------
G---------------<5>----------
D----------<12>--------------
A------<7>-------------------
E--<7>-----------------------

e-----------------------<5>--
B-------------------<7>------
G---------------<5>----------
D----------<12>--------------
A------<7>-------------------
E--<7>-----------------------

Part B
e--12--5--0----------------------
B--13--7--5--7--7-8--5--5/7-5-0--
G------------5--5-5--5--5/7-5-0--
D------------7--7-7--7-----------
A--------------------------------
E--0---0--0--0--0-0--0--0-----0--

e--12------5-------0---------------------------
B--13------7-------5-------7--7-8--5--5/7-5-0--
G--------------------------5--5-5--5--5/7-5-0--
D--------------------------7--7-7--7-----------
A----------------------------------------------
E--0--0-0--0--0-0--0--0-0--0--0-0--0--0-----0--

Part C    
e-------------5--7---------5--7---7----------
B--12---5---8----8---5---8----8-8----8-7--5--
G--12---7------------7---------------9-9--7--
D----------------7------------7--------------
A-------7-7----------7-7-------------7-7--7--
E--------------------------------------------

e---------------
B----------(3)--
G--7-6-5-4--5---
D-----------3---
A--7-7-7-7--5---
E--0-0-0-0--3---