Message Board
TR3 - The Left Hand of Darkness
TR3 - On This Mountain Born in Clouds
Tablature

Come Together (Beatles Cover)
By Tim Reynolds
Tabbed By Jeff Abeles

Tuning: Drop D

Main Bass Line
|----------------------------------|
|---------------------------------:|
|----------------------------------|
|----------------------------FILL--|
|--------8----5-----------8-------:|
|--0-0-7---xx-----0-0-0-7----------|


Verse
|------------------------------------------------------|
|------------------------------------------------------|
|----10-X-X-10---10--7-5-7-----10-10-10---10--7-5-7----|
|----10-X-X-10---10--7-5-7-----10-10-10---10--7-5-7----|
|-------X-X------8------------------------8------------|
|--0-----------7-------------0----------7-----------7--|


|------------------------------------------------------|
|------------------------------------------------------|
|----10-X-X-10---10--7-5-7-----10-10-10---10--7-5h7-7--|
|----10-X-X-10---10--7-5-7-----10-10-10---10--7-5h7-7--|
|-------X-X------8------------------------8------------|
|--0-----------7-------------0----------7--------------|


Bridge
|--------------------------------------------------------------------------|
|----5-------5-------------5-------5-------------6-6-6-3-6-6-----6-6-3-6---|
|----5h6-----5h6-----------5h6---6-5h6---6----5--4-4-4-4-4-4-----4-4-4-4---|
|----5-------5-------------5-----6-5-----5----4----------------------------|
|--0-----7-0-----0-5h7p5p0-----0-------0---------------------5-------------|
|------------------------------------------7--6--5-------5-----5---------5-|


Chorus
|------5-2-2---2--------------------------------------|
|--3-3-3-3-3---3---5s7-7s5p3---3-3-----5--------------|
|----------4---4---------------4-4-----6---------7-7--|
|--------4-----4---------------5-5-----7-----7s9------|
|------2-----2---2------------------------------------|
|----------------------------5-----5s7----------------|