Message Board
TR3 - The Left Hand of Darkness
TR3 - On This Mountain Born in Clouds
Tablature

Jump Nyabinghi (Marley)
By Tim Reynolds
Tabbed By JTR

Tuning: Drop D

Intro ("Jump, jump, jump...")

-10----10-10-----8-7--5--7-----5------
-10----10-10-----7-7--7--7--7--5--7~--
-11----11-11----------------7-----7~--
-12----12-------------------------7~--
-12----12-------------------------5~--
-0--0--0--0--0--0--0--0--0--0--0--0---

-10----10-10-----7-8--10-7-----5------
-10----10-10-----7-7--7--7--7--5--7~--
-11----11-11----------------7-----7~--
-12----12-------------------------7~--
-12----12-------------------------5~--
-0--0--0--0--0--0--0--0--0--0--0--0---