Message Board
TR3 - The Left Hand of Darkness
TR3 - On This Mountain Born in Clouds
Tablature

Buffalo Soldier (Marley)
By Tim Reynolds
Tabbed By JTR

Tuning: Drop D

Intro
----------------------------------
-2-2-3-3-5-5-5---5-5-7-9--9-10-10-
-2-2-4-4-4-6-6---6-6-6-9--9-9--9--
----------------------------------
-0-0-0-0-0-0-0---0-0-0-0--0-0--0--
----------------------------------

"Buffalo Soldier..."
-----------------------------------------------------
---------------2-2-2-0-2--------------2-2--2h3p2-0---
-------2--2-4--2-2-2-1-2-------2--2-4-2-2--2-------2- Add variations
-------2-------2-2-2-2-2-------2-------------------2-
--0-/4-0-------0-0-0---0--0-/4-0-------------------0-
--------------------------------------4-2--0---------


------------------------5-2----------------------------5---------------
-7-5-7--5-7-7-5----5----5-2-------2-2---7-5-7--5-7-7-5-5---------------
-7-6-7--6-7-7-6---6-6-------4-2-4-2-2---7-6-7--6-7-7-6---2-2-2h4p2-----
-----------------7---7------4-2-4--------------------------------------
----------------7----------------------------------------0-0-0---0-----
-----------------------------------------------------------------------

-5-----5-5--5-5-----5-5--5------------------
-5-7-5-5-5--5-5-7-5-5-5--5-7-5-2-2-2--------
---7-6----------7-6-6-6----7-6-2-2-2-/4-2---
-------------------------------------/4-2---
-0-0-0------0-0-0-0------0-0-0----------0---
--------------------7-7--------0-0-0--0-----