Message Board
TR3 - The Left Hand of Darkness
TR3 - On This Mountain Born in Clouds
Tablature

Ohio (Niel Young Cover)
By Tim Reynolds
Tabbed By Eric Ahlstrom

Tuning: Drop D

---------------------------
-------3--------3---3------
---0h2---2------0---0------
-----------0--3--(2)--0----
------------------3--(0)---
-0----------------------0--

-------------------------------------
-6-5-3-1--1-3-3-1------6-5-3-1-1-3-3-
-5-5-2-0--0-2-2-0------5-5-2-0-0-2-2-
-------------------------------------
-------------------------------------
------------------X------------------

--------------------------------------------------------------------
---3-3-3--6-6-6/8-----5-6--5-3-------1----3-3-3-6--6-6-5-------1-1--
---3-3-3----5---------5-5--5-3--5----0----3-3-3-5--5-5-5-------0-0--
---0-0-0------------------------5-0h2-----0-0-0----------------2-2--
-----------------0-/3-3--3----------------------------3--3-0h3------
-5-5-5-----5-5--------------------------5-5-5-----------------------

----------------------------------------------------------------------------------
-----3-3-3--6-6-6/8-----5-6--5-3-------1--------3-3-3-6-6-3--5-1-1-1-1-1-1-1-1----
-----3-3-3----5---------5-5--5-3--5----0--------3-3-3-5-5-3--5-0-0-0-0-0-0-0-0----
-----0-0-0------------------------5-0h2---------0-0-0-----------------------------
-------------------0-/3-3--3-------------0h3-5--------------3-3--3-3-4-4-4-4-4-3--
-0/5-5-5-----5-5------------------------------5-5-----5-5-----------------------3-