Message Board
TR3 - The Left Hand of Darkness
TR3 - On This Mountain Born in Clouds
Tablature

Century Sister
By Tim Reynolds
Tabbed By Philip Lucas

Tuning: Standard

0:00
e:------------------------------------------------------------------
B:------------------------------------3------3---3---3---3----------
G:-----------3--------3/5---5--5--3---2----2------------------------
D:-------3---3--------3/5---5--5--3------0-----4---2----------------
A:-----------------------------------------------------2------------
E:---3-----------3---------(5)--------0-----------------------------

0:05
e:------------------------------------------------------------------
B:------------------------------------3-----3-----8--8---7--7-------
G:-----------3--------3/5---5--5--3---3-----3-----8--8---7--7-------
D:-------3---3--------3/5---5--5--3----------------------------9----
A:------------------------------------------------------------------
E:---3-----------3---------(5)--------2--2-----2--7------0----------

0:10
e:----------------3--3------3--3---2--2----1/2--2-2-0------3--3-----
B:---6/7--7-7-5---4--4------4--4---3--3----2/3--3-3-0------3--3-----
G:---6/7------------------------------------------------------------
D:------------------------------------------------------------------
A:----------------4-------4--------3-----3--------------1-----------
E:---0------------------3-------------------------------------------

0:15
e:------3--3--------------------------------------------------------
B:------4--4-------------------------------3------3---3---3---3-----
G:----------------3--------3/5---5--5--3---2----2-------------------
D:----------------3--------3/5---5--5--3------0-----4---2-----------
A:----------------------------------------------------------2-------
E:---4-----4---3-----------3---------(5)---0------------------------

0:20
e:------------------------------------------------------------------
B:------------------------------------3------3---8--8---7--7--------
G:-----------3--------3/5---5--5--3---3----3-----8--8---7--7--------
D:-------3---3--------3/5---5--5--3------0--------------------9-----
A:------------------------------------------------------------------
E:---3-----------3---------(5)--------2----------7------0-----------

0:25
e:----------------3--3------3--3---2--2----1/2--2-2-0------3--3-----
B:---6/7--7-7-5---4--4------4--4---3--3----2/3--3-3-0------3--3-----
G:---6/7------------------------------------------------------------
D:------------------------------------------------------------------
A:----------------4-------4--------3-----3--------------1-----------
E:---0------------------3-------------------------------------------

0:30
e:---5---7---3------------------------------------------------------
B:---6---8---4---3-------3-------3----------------------------------
G:---------------3--------------------------------------------------
D:---------------------3--------------------------------------------
A:---6---8---4-----5s6-----6s5-3------------------------------------
E:---------------4-----------------4--------------------------------

0:35
e:---7---5---1------------------------------------------------------
B:---8---6---2---1-------1-------1-------7\-------------------------
G:---------------1-----------------------6\-------------------------
D:---------------------1--------------------------------------------
A:---8---6---2-----3s4-----4s3-1---------6\-------------------------
E:---------------2-----------------2--------------------------------

0:40
e:------------------------------------------------------------------
B:-----------2-----------------4----4----4/5\4-2--------------------
G:-----------1-----------1--3--3----3----3/4\3-3--------------------
D:-----------------1--3---------------------------------------------
A:---1---1--1------------------1--1---1-----------------------------
E:--------------1---------------------------------------------------

0:43
e:------5-------5--------4--------4---------------------------------
B:---6----6---6---6---6----6---6----6-------------------------------
G:------------------------------------------------------------------
D:------------------------------------------------------------------
A:---5----------------4---------------------------------------------
E:------------5----------------4------------------------------------

0:45
e:------------------------------------------------------------------
B:-------4--4------------------6----6----6/7\6-4---9--9--9----------
G:-------3--3------------3--5--5----5----5/6\5-5---8--8--8----------
D:-----------------3--5---------------------------------------------
A:---3-------------------------3--3---3------------8----------------
E:--------------3----------------------------------------8----------

0:50
e:---9/11--9--8--------9/10--9--------------------------------------
B:---9/11--9--8--8--8--9/10--9--------------------------------------
G:-------------------------------------5------------2--4------------
D:-------------------------------------5------2--4------------------
A:------------------------------------------------------------------
E:------------0--0--0-----------5---5--5---0------------------------

0:55
e:------------------------4-------4--------3-------3----------------
B:---------------------5----5---5---5---5----5---5---5--------------
G:---7----7----7/8\5------------------------------------------------
D:---5----5----5/6\5------------------------------------------------
A:---0--0----0---------4----------------3---------------------------
E:------------------------------4----------------3------------------

1:00
e:------------------------------------------------------------------
B:-------3--3------------------5----5----5/6\5-3---8--8------8--8---
G:-------2--2------------2--4--4----4----4/5\4-4---7--7------7--7---
D:-----------------2--4---------------------------------------------
A:---2-------------------------2--2---2--------------------7--------
E:--------------2----------------------------------0-----0----------

1:05
e:---8---6----------------------------------------------------------
B:---8---6---6/7\6-4------------------------------------------------
G:-----------5/6\5-5------------------------------------------------
D:-------5----------------------------------------------------------
A:-----------5/6\5--------------------------------------------------
E:---5--------------------------------------------------------------

1:08
e:------------------------------------------------------------------
B:------------------------------------3------3---3---3---3----------
G:-----------3--------3/5---5--5--3---2----2------------------------
D:-------3---3--------3/5---5--5--3------0-----4---2----------------
A:-----------------------------------------------------2------------
E:---3-----------3---------(5)--------0-----------------------------

1:11
e:------------------------------------------------------------------
B:------------------------------------3-----3--8--8---7--7----------
G:-----------3--------3/5---5--5--3---3-----3--8--8---7--7----------
D:-------3---3--------3/5---5--5--3-------------------------9-------
A:------------------------------------------------------------------
E:---3-----------3---------(5)--------2--2-----7------0-------------

1:15
e:----------------3--3------3--3---2--2----1/2--2-2-0------3--3-----
B:---6/7--7-7-5---4--4------4--4---3--3----2/3--3-3-0------3--3-----
G:---6/7------------------------------------------------------------
D:------------------------------------------------------------------
A:----------------4-------4--------3-----3--------------1-----------
E:---0------------------3-------------------------------------------

1:22
e:---5---7---3------------------------------------------------------
B:---6---8---4---3-------3-------3----------------------------------
G:---------------3--------------------------------------------------
D:---------------------3--------------------------------------------
A:---6---8---4-----5s6-----6s5-3------------------------------------
E:---------------4-----------------4--------------------------------

1:25
e:---7---5---1------------------------------------------------------
B:---8---6---2---1-------1-------1------1---------------------------
G:---------------1----------------------1---------------------------
D:---------------------1--------------------------------------------
A:---8---6---2-----3s4-----4s3-1------------------------------------
E:---------------2-----------------2--2-----------------------------
1:

1:30
e:-----------------5--3--5------------------------------------------
B:---------3----6-----------7---------------------------------------
G:---3--5---------------------7-------3----3----2---2--3--3-3-------
D:------------------------------9-7---3----3----3---3--2--2-2-------
A:------------------------------------------------------------------
E:---3-----3--3----------0------------3--3----3---3----2--2-2-------

1:35
e:------------------------------11--------9--------10---------------
B:-----------------------7---11----11--9----9---10----10--7--7------
G:---8-8-8---7-----7--9---------------------------------------------
D:---7-7-8------9---------------------------------------------------
A:------------------------------------------------------------------
E:---7-7-7---0-----0---------9---------9--------8---------8---------

1:42
e:-----8------6----------------5--3---5--2---9--7-------------------
B:---8---8--6---6---12/13-10---3--3---3--3---7--7-------------------
G:------------------11/12-10----------------------------------------
D:------------------------------------------------------------------
A:------------------10----10----------------------------------------
E:---6------4------------------3------0------0----------------------

1:47
e:----12--10------------------------------------------------10--8---
B:------------13--12--10---------------------------10--10----8--8---
G:------------------------12---10-------------------9---9-----------
D:---------------------------------12--11--10--8-------------7------
A:---(10)-------------------------------------------9---------------
E:------------------------------------------------------------------

1:50
e:----------------------------11/14--9--7--6------------------------
B:--------7--8--10--8--7--11------------------9--7--5/6-------------
G:--------7---------7-----------------------------------------------
D:------------------------------------------------------------------
A:------------------------------------------------------------------
E:---7\---0---------0------9----------------------------------------

1:54
e:---------10------10-------8--8-------5---7---3--------------------
B:---10----10--10------10---8--8-------6---8---4---3----------------
G:-------------------------------------------------3----------------
D:------------------------------------------------------------------
A:-------------------------------------6---8---4--------------------
E:----8--8------8-------8---6-----6\---------------4----------------

1:58
e:---------3--6/8--6------------7--5--1-------------1--4--1---------
B:---3--6-------------8--6------8--6--2---1---1--4-----------4--1---
G:--------------------------7-------------1-------------------------
D:------------------------------------------------------------------
A:------------------------------8--6--2-----------------------------
E:----------------------------------------2-------------------------

2:03
e:----------1---------------------------5---------------------------
B:-------------3--1---------------5-----5--5------------------------
G:-------3-----------3------7-----7--------7---3--5--3--5/6\5--3----
D:---2---3--------------5---5------------------5--5--5--5/6\5--3----
A:---1--------------------------------------------------------------
E:---2---3------------------0--0--0--0--0--0---3-----3--------------

2:10
e:-------10------10---------7--------------11--12--13---------------
B:---10--10---8---8--8--10-----8--10---11--------------11-----------
G:----9-------7------7---7-----7---7--------------------------------
D:------------------------------------------------------------------
A:----9--------------7---------7------------------------------------
E:------------7-------------------------9---------------9-----------

2:15
e:-------10--11--12-------------------------------------------------
B:---10--------------10---8--8---4--4-------------------------------
G:------------------------7--7---3--3-------------------------------
D:------------------------------------------------------------------
A:------------------------------------------------------------------
E:----8---------------8---6------4----------------------------------

2:18
e:---8--5--3--6--5--3--2--5----5--2---------------------------------
B:---8--5--3--6--5--3--3-------5--3--1--3--1--3--1--3--5--3---------
G:-----------------------------------3--3--3--3--0--3---------------
D:---5--------------------------------------------------------------
A:------------------------------------------------------------------
E:---------3-----3-----0-------------3-----3-----3--3---------------

2:24
e:-------8--------------10--14--12--10----------9--13--9------------
B:---10-----10--7--/12------------------11--11------------11--------
G:----9---------7-----------------------10--------------------------
D:------------------------------------------------------------------
A:------------------------------------------------------------------
E:----9---------0------------------------9--------------------------

2:28
e:-----------8--12--10--8-------------------------------------------
B:---10--10----------------8----8---8--8----------------------------
G:----9--------------------7----7---7--7----------------------------
D:------------------------------------------------------------------
A:------------------------------------------------------------------
E:----8--------------------6----6---6--6----------------------------

2:31
e:---5---7---3----------------------6s8s6---7---3-------------------
B:---6---8---4---3------------6--8----------8---4---3---1-----------
G:---------------3------5--7------------------------3---1-----------
D:-------------------6----------------------------------------------
A:---6---8---4------------------------------8---4-------------------
E:---------------4----------------------------------4---2-----------

2:37
e:------------------------------------------------------------------
B:------------------------------------------------------------------
G:--------------1------------1------------1-------------------------
D:-----------1------------1------------1----------------------------
A:-------1-------------1------------1-------------------------------
E:---2--------------2------------2----------------------------------

2:39
e:------------------------------------------------------------------
B:---2---2-----4--4--2------2---2-----4--4--2---6---6-----8--8--6---
G:---3---3-----3--3--3------3---3-----3--3--3---5---5-----5--5--5---
D:------------------------------------------------------------------
A:---1---1--1--------1------1---1--1--------1---5---5--5--------5---
E:----------------------(1)-----------------------------------------

2:43
e:--------------4---7---7---4-------3--6--10--8--6------------------
B:-------6--6-----------6---6-------4------8--------8---------------
G:-------4----------------------------------------------------------
D:------------------------------------------------------------------
A:-------4--------------4-----------3-------------------------------
E:---(4)------------------------(3)--------8------------------------

2:47
e:------6--5--3----------------------4--------4--4------------------
B:---4-----4--4---4-----6--4---------4--------4--4-----8------------
G:---5------------5-----5--5---------------------------7------------
D:--------------------------------3--------3------------------------
A:---3-----3------3--3-----3---------------------------7------------
E:-----------------------------1--------1----------(0)--------------

2:51
e:---14--12--10-----------------------------------------------------
B:---------------13--12--10-----------------------------------------
G:---------------------------12--9----------------------------------
D:----------------------------------12--9---------------------------
A:------------------------------------------------------------------
E:------------------------------------------------------------------

2:52
e:------------------------------------------------------------------
B:------------------------------------------------------------------
G:------------------------------------------------------------------
D:---8h9-----9-----8-----8-----7-----7-----8--9--8------------------
A:---0----0-----0-----0-----0-----0-----0---------------------------
E:------------------------------------------------------------------

2:56
e:------------------------------------------------------------------
B:-------------------------------------6--4--6----------------------
G:---9-----9-----8-----8---------8h9---5--5--5----------------------
D:---9-----9-----9-----9--11-----9----------------------------------
A:-------------------------------------3-----3----------------------
E:---9--9-----9-----9-----9---9--9----------------------------------

2:59
e:------------------------------------------------------------------
B:---5-----5-----3-----3-----5-----5-----3---5s6--5--3--------------
G:---4-----4-----4-----4-----4-----4-----4--------------2-----------
D:------------------------------------------------------------------
A:---2--2-----2-----2-----2-----2-----2-----------------------------
E:------------------------------------------------------0-----------

3:03
e:-------------------------------8--5-------------------------------
B:---8-----8-----8-----8-----8---------8--5-------------------------
G:---7-----7-----7-----7-----7---------------7--6--5----------------
D:----------------------------------------------------7-------------
A:------7-----------------------------------------------------------
E:---0--------0-----0-----0-----------------------------------------

3:05
e:------------------------------------------------------------------
B:---------3-----3-----3--------3-----3-----3-----------------------
G:---3--5--------3-----3--2--4--------2-----2-----------------------
D:------------------------------------------------------------------
A:------------------------------------------------------------------
E:------------3-----3-----0--------0-----0-----0--------------------

3:09
e:---------------------------------------------8--------------------
B:---------3-----3-----3-----5-----3--3--3--8-----8-----------------
G:---3--5--------3-----3-----------3--3--3--------------------------
D:------------------------------------------------------------------
A:------------------------------------------------------------------
E:------------3-----3-----3-----3-----3--3--8-----------------------

3:13
e:------7--------7------3--6--7--6--4--6--2--5--6--5--3--5----------
B:---7-----7--7-----7---4-----------------3------------------8--6---
G:---7-----7--7-----7----------------------------------------7--5---
D:------------------------------------------------------------------
A:----------------------4-----------------3-------------------------
E:---0-----0--0--0--0----------------------------------------6--4---

3:19
e:------------------------------------------------------------------
B:------------------------------------3----3------------------------
G:-----------3--------3/5---5--5--3---2----2------------------------
D:-------3---3--------3/5---5--5--3-----------0--2h4p2p0h2-4--------
A:------------------------------------------------------------------
E:---3-----------3---------(5)--------0--0--------------------------

3:23
e:------------------------------------------------------------------
B:------------------------------------3-----3----8--8---7--7--------
G:-----------3--------3/5---5--5--3---3-----3----8--8---7--7--------
D:-------3---3--------3/5---5--5--3---------------------------9-----
A:------------------------------------------------------------------
E:---3-----------3---------(5)--------2--2-------7------0-----------

3:27
e:----------------3--3------3--3---2--2-----2--2-2-0-----3--3-------
B:---6/7--7-7-5---4--4------4--4---3--3-----3--3-3-0-----3--3-------
G:---6/7------------------------------------------------------------
D:------------------------------------------------------------------
A:----------------4-------4----4---3-----3------------1-------------
E:---0------------------3-------------------------------------------

3:33
e:---5---7---3------------------------------------------------------
B:---6---8---4---3-------3-------3----------------------------------
G:---------------3--------------------------------------------------
D:---------------------3--------------------------------------------
A:---6---8---4-----5s6-----6s5-3------------------------------------
E:---------------4-----------------4--------------------------------

3:37
e:---7---5---1------------------------------------------------------
B:---8---6---2---1-------1-------1-------7\-------------------------
G:---------------1-----------------------6\-------------------------
D:---------------------1--------------------------------------------
A:---8---6---2-----3s4-----4s3-1---------6\-------------------------
E:---------------2-----------------2--------------------------------

3:41
e:------------------------------------------------------------------
B:---2------2-------------------4----4----4/5\4-2-------------------
G:---1------1-------------1--3--3----3----3/4\3-3-------------------
D:-----------------1--3---------------------------------------------
A:---1---1---------------------1--1---1-----------------------------
E:--------------1---------------------------------------------------

3:45
e:------5-------5--------4--------4---------------------------------
B:---6----6---6---6---6----6---6----6-------------------------------
G:------------------------------------------------------------------
D:------------------------------------------------------------------
A:---5----------------4---------------------------------------------
E:------------5----------------4------------------------------------

3:48
e:------------------------------------------------------------------
B:-------4--4------------------6----6----6/7\6-4---9--9--9----------
G:-------3--3------------3--5--5----5----5/6\5-5---8--8--8----------
D:-----------------3--5---------------------------------------------
A:---3-------------------------3--3---3------------8----------------
E:--------------3----------------------------------------8----------

3:53
e:---9/11--9--8--------9/10--9--------------------------------------
B:---9/11--9--8--8--8--9/10--9--------------------------------------
G:-------------------------------------5------------2--4------------
D:-------------------------------------5------2--4------------------
A:------------------------------------------------------------------
E:------------0--0--0-----------5---5--5---0------------------------

3:57
e:------------------------4-------4--------3-------3----------------
B:---------------------5----5---5---5---5----5---5---5--------------
G:---7----7----7/8\5------------------------------------------------
D:---5----5----5/6\5------------------------------------------------
A:---0--0----0---------4----------------3---------------------------
E:------------------------------4----------------3------------------

4:02
e:------------------------------------------------------------------
B:-------3--3------------------5----5----5/6\5-3---8--8------8--8---
G:-------2--2------------2--4--4----4----4/5\4-4---7--7------7--7---
D:-----------------2--4---------------------------------------------
A:---2-------------------------2--2---2--------------------7--------
E:--------------2----------------------------------0-----0----------

4:07
e:---8---6----------------------------------------------------------
B:---8---6---6/7\6-4------------------------------------------------
G:-----------5/6\5-5------------------------------------------------
D:-------5----------------------------------------------------------
A:-----------5/6\5--------------------------------------------------
E:---5--------------------------------------------------------------

4:09
e:------------------------------------------------------------------
B:------------------------------------3------3---3---3---3----------
G:-----------3--------3/5---5--5--3---2----2------------------------
D:-------3---3--------3/5---5--5--3------0-----4---2----------------
A:-----------------------------------------------------2------------
E:---3-----------3---------(5)--------0-----------------------------

4:12
e:------------------------------------------------------------------
B:------------------------------------3-----3----8--8---7--7--------
G:-----------3--------3/5---5--5--3---3-----3----8--8---7--7--------
D:-------3---3--------3/5---5--5--3---------------------------9-----
A:------------------------------------------------------------------
E:---3-----------3---------(5)--------2--2-------7------0-----------

4:17
e:----------------3--3------3--3---2--2-----2--2-2-0-----3--3-------
B:---6/7--7-7-5---4--4------4--4---3--3-----3--3-3-0-----3--3-------
G:---6/7------------------------------------------------------------
D:------------------------------------------------------------------
A:----------------4-------4----4---3-----3------------1-------------
E:---0------------------3-------------------------------------------

4:23
e:---5---7---3------------------------------------------------------
B:---6---8---4---3-------3-------3----------------------------------
G:---------------3--------------------------------------------------
D:---------------------3--------------------------------------------
A:---6---8---4-----5s6-----6s5-3------------------------------------
E:---------------4-----------------4--------------------------------

4:26
e:---7---5---1------------------------------------------------------
B:---8---6---2---1-------1-------1----------------------------------
G:---------------1--------------------------------------------------
D:---------------------1--------------------------------------------
A:---8---6---2-----3s4-----4s3-1------------------------------------
E:---------------2-----------------2--------------------------------

4:30
e:---5---7---3------------------------------------------------------
B:---6---8---4---3-------3-------3----------------------------------
G:---------------3--------------------------------------------------
D:---------------------3--------------------------------------------
A:---6---8---4-----5s6-----6s5-3------------------------------------
E:---------------4-----------------4--------------------------------

4:34                                                            4:46
e:---7---5---1-----------------------------------------------------F
B:---8---6---2---1-------1-------1----1----------------------------I
G:---------------1--------------------1----------------------------N
D:---------------------1--------------1----------------------------I
A:---8---6---2-----3s4-----4s3-1------1----------------------------S
E:---------------2-----------------2-------------------------------H