Message Board
TR3 - The Left Hand of Darkness
TR3 - On This Mountain Born in Clouds
Tablature

Zimbabwe (Marley)
By Tim Reynolds
Tabbed By Eric Ahlstrom

Tuning: Standard

Intro (slapped)
-------0------------------
-------0-----------2-2---- (with misc. fills)
---1-1-1---------3-3-3----
-2-2-2-2---------4-4-4----
-2-2-2-2-2-2-----4-4-4----
-0-0-0---0-0--/2-2--------


"Every man got..."
---------------------------------------4-2-2----------------0---
--4-4-4-4-4--4-4-0-0--5------------4-4-5-2-2-0-2-5-4-2--0-0-0---
--3-3-3-4-4--4-4-1-1--4------------3-3-------------4-2--1-1-1---
-1-1---1-1------------------------1-1-----------------------2---
---------------------2-----------------4-4------------------2---
------------4---X----------/11----------------------4-------0----


"Brother you're right..." 
-----4-7---------------------------------------------/2----------------------------
-4-7---7--4-4-5-7---4-4-2-5-0--/4--2-0-0-0-2-5--4-4-5---4-4-5-0-2-5-4----/4--2-0-0-
-4----------4---------4-----1--/4--2-1-1--------4-------4-4-4----------1-/4--2-1-1-
-----------------4-------------------2-2-------1--------1-1----------(2)-----------
-----------------------2-------------2-2-------------------------------------------
--------X----X----------------4--X-------------------------------------------------

"Natti-dread-it?, Zim-bab-we..."
----------------/6-4-6------------/6-4-6-------------------/6-4-6--
---4p0-4--0-2-4-/7-5-7----0-0-2-4-/7-5-7-------------------/7-5-7--
---4p1-4-1----4-/6-4-6----1-1---4-/6-4-6-6-6-6-8-9-8-6-8-9-/6-4-6--
-----------------------------------------4-6-6-9-9-9-6-8-9---------
--2--------------------0-2-2---------------------------------------
-0----------2-----------------2------------------------------------