Message Board
TR3 - The Left Hand of Darkness
TR3 - On This Mountain Born in Clouds
Tablature

Chatterbox
By Tim Reynolds
Tabbed By Brian L. Cox

Tuning: Standard

Key of E mixolydian. I prefer to play fingerstyle. 
To play the intermediate bass parts, try using a 
'rolling' technique with your fret fingers. Don't 
forget to mix in some slap bass on some of the rolls. 


Basic Riff 
e----------------------------------------- 
b-4/5-5-6/7-----------7/8-8-8/9----------- 
g----------------------------------------- 
d-5/6-6-6/7-----------7/8-8-8/9----------- 
a----------------4h5-----------------5h7-- 
E-0---0-0---0h4h5-----0---0-0---0h5h7----- 


Fill #1 
e-12--------------------------------------- 
b-12-9--8--5-----------7/8-8-8/9----------- 
g------------------------------------------ 
d----9--8--6-----------7/8-8-8/9----------- 
a-----------------4h5-----------------5h7-- 
E----0--0--0-0h4h5-----0---0-0---0h5h7----- 


Fill #2 
e---------12-------------------------------- 
b-5-8--9--12-------------7/8-8-8/9---------- 
g------------------------------------------- 
d-6-8--9-----------------7/8-8-8/9---------- 
a-------------------4h5----------------5h7-- 
E-0-0--0---0-0h4h5----------------0h5h7----- 


Second Riff 
e-2-2-3-3-4-4-5-5----9-10----------- 
b-2-2-3-3-4-4-5-5-5--9-10-7/8-7/8-5- 
g-----------------4----------------- 
d-------------------------7/8-7/8-6- 
a----------------------------------- 
E-4---5---4---4---0----------------- 


e-2-2-3-3-4-4-5-5-2/3/4-3\2\0-7/8/9- 
b-2-2-3-3-4-4-5-5------------------- 
g-----------------2/3/4-3\2\1-7/8/9- 
d----------------------------------- 
a----------------------------------- 
E-4---5---4---3--------------------- 


Usually Toward the End 
e------------------------------------- 
b-9-6/7-------------7-4/5------------- 
g------------------------------------- 
d-9-6/7-------------7-5/6------------- 
a-----------------5-----------------7- 
E-0-0--0-0-0-0h4h5-------0-0-0-0h5h7--