Message Board
TR3 - The Left Hand of Darkness
TR3 - On This Mountain Born in Clouds
Tablature

San Jacinto
By Tim Reynolds
Tabbed By Eric Ahlstrom

Tuning: Standard

Intro Riff (with delay)
Note: Same riff is repeat later, minus effects
(0:00-0:35)
-----7-/9\--5-4--------------
---5------------7-5----------
-4---------------------------
------------------(Repeat)---
-----------------------------
-----------------------------



Bassline/Main Riff (bass slaps) 
Note: This gets used almost everywhere as filler, and
I'll put an X where it might go at the end of a segment
(0:35-0:46)
-----------------------------
-----------------------------
----------(1)(1)(1)-(1)--/4--
-4--4-4-X--2--2--2---2---/4--
-4--4-4-X--2--2--2---2-------
-2--2-2-X--0--0--0---0-------



Main lyric part ("Medicine man lead me up...")
(0:46-1:10)
-----------------------------
-----------------------------
-----------------------------
---4-4---2/4-4/6---(6)-------
---4-4---2/4-4/7---(7)-------
-2-----0---------0-0--0-0----

(cont.) 
-------------------X
-------------------
-------------------
---6-6-4-2-4-4-----
---7-7-4-2-4-4-----
-0-----------2-----



Another lyric part 
(1:11-1:18)
----------------------------------------
---5-5-4-0--0---4-4-4-4-2-0-2--2-0-2-4~-
---4-4-4-2--2---4-4-4-4-2-2-2-----------
------------4-------------4-------------
----------------------------------------
-2-2-2-2-0--0-0-2-2-2-2-0-0-0-----------



More Lyric parts
(1:23-1:28) 
----------------------------X
----------------------------
--2-2-2-1~----4-------------
--------------4---7\6\4-----
----------------------------
-2-2-2--0~------------------



Part similar to stuff at 1:11
(1:55-2:05) 
----------------------------------X
---5-4-0--0---5-4-2-7-5-----------
---4-4-2--2---4-4-2-4-4-----------
-------------------------(repeat)-
----------------------------------
--2-2-2-2-0--2-2-2-2-0-0----------



Another portion
(2:06-2:25) 
-----------------X
-7-7-7-7--7-9-9--
-6-6-6-6--6-9-9--
-----------------
-----------------
-?-?-?-?-?-?-?-?-

-------------X
-9-9--7-5-7--
-9-9--6-4-6--
-------------
-------------
-?-?-?-?-?-?-

Variations continue of previously written segements


"...white wind blow"
(2:45-2:49) 
------------------X
-9-5-12/14~-------
------------------
------------------
------------------
------------------


"I hold the line..."
(2:55 and so on) 
-5-5--5-5-------5-5--5-5-4-4-2--------
--------3-----3---3--3-3-3-3-3------2-
--------2---2-----2--2-2-2-2-2--0-2---
--------0-0-------0-------------------
--------------------------------------
--------------------------------------


There is some roll towards the end that goes kinda like:
-------|-------------
-----2-|-----2-------
-0-2---|---2---2h4---
-------|-2---------2-
-------|-------------
-------|-----?-------