Message Board
TR3 - The Left Hand of Darkness
TR3 - On This Mountain Born in Clouds
Tablature

Indoctrinate
By Tim Reynolds
Tabbed By Adam Garrett

Tuning: Standard

Rhy. Fig. 1
e|----------------|
B|-6--8-----------|
G|-5--7--10-9-----|
D|-7--9--10-9-----|
A|-5--7--8--7-----|
E|----------------|

e|-------------|
B|-6--8--------|
G|-5--7--9-----|
D|-7--9--------|
A|-5--7--------|
E|-------8-----|

Rhy. Fig. 2 (Verse)
e|-5---3---1-----|
B|-5---3---1-----|
G|-6---4---2-----|
D|-7---5---3-----|
A|-7---5---3-----|
E|---------------|

Chorus
e|-----------------|----------------|
B|-6----8-8-8-6----|-6----8--8------|
G|-5----7-7-7-5----|-5----7--7--9---|
D|-7----9-9-9-7----|-7----9--9------|
A|-5----7-7-7-5----|-5----7--7------|
E|-----------------|------------8---|

NOTES:
-Variations throughout