Message Board
TR3 - The Left Hand of Darkness
TR3 - On This Mountain Born in Clouds
Tablature

They're Coming Soon
By Tim Reynolds
Tabbed By Adam Garrett

Tuning: Drop D

Intro
e|------------------------------|
B|------------------------------|
G|------------------------------|
D|-*10*10*10*-10-12-12-12\--0~--|
A|-*10*10*10*-10-12-12-12\--0~--|
D|-*10*10*10*-10-12-12-12\--0~--|


Rhy. Fig. 1
e|----------------------|
B|----------------------|
G|----------------------| (X 4)
D|-0~-------------------|
A|-0~---X-10-12-12-12\--|
D|-0~---X-10-12-12-12\--|

e|------------------------------------|
B|------------------------------------|
G|------------------------------------| (X 4)
D|--0~---5~---3~---0~---10-12-12-12\--|
A|--0~---5~---3~---0~---10-12-12-12\--|
D|--0~---5~---3~---0~---10-12-12-12\--|


Rhy. Fig. 2
e|---------------------------------------------------------------|
B|-19~--19br19~------10-h13p10-h13p10~---10p8--10-h13p10-h13p10--|
G|----------------10---------------------------------------------|
D|---------------------------------------------------------------|
A|---------------------------------------------------------------|
D|---------------------------------------------------------------|

NOTES:
-* = harmonics
-Many variations throughout (especially on Rhy. Fig. 2, which leads to improv sections/riffs)