Message Board
TR3 - The Left Hand of Darkness
TR3 - On This Mountain Born in Clouds
Tablature

Imaginary Time
By Tim Reynolds
Tabbed By Jamie McMurrich

Tuning: Standard

Tabbed from the studio version.

Part A
e----------------------------0-0-
b------0---0-0-0---0-0-0---0-0-0-
g------2---2-2-2---2-2-2---2-2-2-
d------4---4-4-4---4-4-4---------
a--------0-------2-------4-------
E-0--2---------------------------

e--------------------------0-
b------0---0-0-0---0-0-0---0-
g------2---2-2-2---2-2-2---2-
d------4---4-4-4---4-4-4---4-
a--------0-------2-----------
E-0--2-------------------0---

It’s tough to get the rhythm of the chords here, I recommend using 3 fingers in 
a sweeping motion for the strumming, in an up-down-up pattern for each set of 3 
chords.


Part B
e-0-2-4---0-2-4---0-2-4---0-2-4---
b---------------------------------
g---------------------------------
d---------------------------------
a-------0-------2-------4-------2-
E---------------------------------

Sometimes on the e string he’ll play -–0-2-5-- or –-4-2-0--


Part C
These are the chords he randomly fingerpicks
e-5------7---5—-5p2p0-0-
b-5—-9---9---5--------0-
g-6----9-9---6--------1-
d-7------9---7--------2-
a-7------7---7--------2-
E-5—-9-0-----5--------0-


That’s the basics, the rest of the song is improv.