Message Board
TR3 - The Left Hand of Darkness
TR3 - On This Mountain Born in Clouds
Tablature

Turn It Into Love
By Tim Reynolds
Tabbed By Jamie McMurrich

Tuning: Drop C

Part A
E----------------------------
B-*12*--*7*--------*12*--*5*-
G-*12*--*7*--------*12*--*5*-
D-*12*--*7*--------*12*--*5*-
A----------------------------
C-0-0-0-0-0-0-0-0-0-0-0-0-0—-

Tim adds a lot of improv in this section, mostly playing around with harmonics. The rhythm for the bass notes aren’t accurately tabbed, play it however you like.

On the live versions he plays:
E---------------------------------
B-*12*--*7*--------*12*--*7*--*5*-
G-*12*--*7*--------*12*--*7*--*5*-
D-*12*--*7*--------*12*--*7*--*5*-
A---------------------------------
C-0-0-0-0-0-0-0-0-0-0-0-0-0—0-0-0-


Part B
E-------------------------------------------------
B-\5-------\5----/3--------\5-------\5------------
G----\2-------\2--------------\2-------\2---------
D-----------------------------------------\2------
A-------------------------------------------------
C-0-0-0-0-0-0-0-0-0-0-0-0-0-0-0-0-0-0-0-0-0-0-0-0-

E-\12--------\12-----/10--------\12--------\12------------
B-----\10--------\10----------------\10--------\10--------
G--------------------------------------------------\9-----
D---------------------------------------------------------
A---------------------------------------------------------
C-0-0-0-0-0-0-0-0-0-0-0-0-0-0-0-0-0-0-0-0-0-0-0-0-0-0-0-0-

Again, a lot of improv to fill the holes. 


Part C
E—-0-0-0-0-0-0-0-0-0-0—-0-0—-0—-0------------------------0-
B—-0-0-0-0-0-0-0-0-0-0—-0-0—-0—-0--------0-----0-----0---0-
G---0---2---4---5---7----9----10-------2-----2-----2-----2-
D-2---3---5---7---9---10---12-----------3-----3-----3----3-
A------------------------------------0-----2-----3-----0---
C----------------------------------------------------------

Play extremely fast.


The rest of the song is just more improv.