Message Board
TR3 - The Left Hand of Darkness
TR3 - On This Mountain Born in Clouds
Tablature

Doom
By Tim Reynolds
Tabbed By Adam Garrett

Tuning: Standard

Rhy. Fig. 1
e|-----------------------------------------
B|-----------------------------------------
G|-----------------------------------------
D|-------2-2-------3-3-------5-5-------3---
A|-0-0320----0-0320----0-0320----0-0320----
E|-----------------------------------------

e|-----------------------------------------
B|-----------------------------------------
G|-------2-2-------2-2-------2-2-------2---
D|-------2-2-------3-3-------5-5-------3---
A|-0-0320----0-0320----0-0320----0-0320----
E|-----------------------------------------

e|-----------------------------------------
B|-------1-1-------1-1-----------------1---
G|-------2-2-------2-2-------2-2-------2---
D|-------2-2-------3-3-------5-5-------3---
A|-0-0320----0-0320----0-0320----0-0320----
E|-----------------------------------------

e|-----------------------------------------
B|-----------------------------------------
G|-------1-1-------2-2-------4-4-------5---
D|-------2-2-------3-3-------5-5-------3---
A|-0-0320----0-0320----0-0320----0-0320----
E|-----------------------------------------


Bridge
e|--------------1--
B|-------------1---
G|------------2----
D|-----------3-----
A|-0-0320---3------
E|---------1-------


Rhy. Fig. 2
e|-------------8---------------5---
B|------------8---------------5----
G|-----------7---------------5-----
D|-------5--5------------5--7------
A|-0-0750-0-------0-0750--0--------
E|---------------------------------

Rhy. Fig. 3 (Chords)
e|-0---1---0---1--|--0---5----7--|--7---8--12--|-----------8------
B|-0---3---0---1--|--0---6----8--|--9---8--12--|-----------8------
G|-1---1---1---2--|--1---5----7--|--9---9--13--|-----------9------
D|-2---2---2---3--|--2---7----9--|--9--10--14--|----------10------
A|-2---3---2---3--|--2---8---10--|--7--10--14--|--??--??--10------
E|-0-------0------|--0-----------|-------------|------------------

*************************************
PATTERN:
Rhy. Fig. 1
Rhy. Fig. 2 (x 2)
Rhy. Fig. 1
Bridge
Rhy. Fig. 3
Rhy. Fig. 1
Bridge
Improv
Rhy. Fig. 1
Rhy. Fig. 2
Rhy. Fig. 1
Bridge