Message Board
TR3 - The Left Hand of Darkness
TR3 - On This Mountain Born in Clouds
Tablature

Breathing Space
By Tim Reynolds
Tabbed By Brian L. Cox

Tuning: Standard

**A**
e------------------|-----------------|-----------------|
B------------------|-----------------|-----------------|
G--2-0---0-2-0---0-|-2-0---0-2-0---0-|-2-0---0-2-0---0-|
D--0---4---0---4---|-----4-------4---|-----4---0---4---|
A------2-------2---|-0---0---0---0---|-----2-------2---|
E------------------|-----------------|-3---------------|
 
     
e-------------0--|--
B---0-1-0-3---0--|--
B-2-------2---2--|--
D-------------0--|--
A-----3-------3--|--
E-1-------1---1--|--


**B**                                                            
e--------------------|---------------------|----------
B-7-------------7-7\-|-/7-------------7-7\-|----------
G-7-------------7-7\-|-/7-------------7-7\-|----------
D-------9-9----------|--------7-7----------|----------
A-----9-----9--------|--0-0-7-----7-0-0-0--|----------
E-7-7---------7-7-7\-|---------------------|---------- 
 

e---------------------|---------------|-0-------||----
B-3-------------3-3/5-|-1-------------|-0-------||----
G-2-------------2-2/4-|-0-------------|-2-------||----
D-------5-5-----------|-------3-3-----|-0-------||----
A-----5-----5---------|-----3-----3---|-3-------||----
E-3-3---------3-3-----|-1-1---------1-|-1-------||----

                                             
Back to B.
 

e--------------------------|-|--------------------------
B--3p1p0-----------------|-|--------------------------
G-------4p2p0------------|-|--------------------------
D------------3p2p0-------|-|------------0h2h3---------
A-----------------3p2p0--|-|------0h2h3-------0h2h3---
E----------------------1-|-|-0h1h3-----------------1--
     Pull off fill.            Hammer on fill.
 
                                  
**C**
e-----------|-----------|-7-5-------|-5b3-------|-----
B-----------|-----------|-----------|-----------|-----
G-----------|-----------|-----------|-----------|-----
D---------5-|-----------|---------5-|-----------|-----
A-----5h7---|-----5h7---|-----5h7---|-----5h7---|-----
E-0x0-------|-0x0-----3b|-0x0-------|-0x0-----3b|-----
 
                                                           
e-7-5-------|-5b3------------------|-----------|------
B-7-5-------|-5b3--------7--7-7--7-|-5--5-5--5-|------
G-----------|------------7--7-7--6-|-5--5-5--4-|------
D---------5-|----------------------|-----------|------
A-----5h7---|-----5h7----5--5-5----|-3--3-3----|------
E-0x0-------|-0x0-----3b---------5-|---------3-|------
 

e----------3-|-10-10-7-5-|-7-7-5-3-|-3-3-3------------
B-3-3-3-3--3-|-10-10-7-5-|-7-7-5-3-|-3-3-3--3---------
G-2-2-2-2----|-----------|---------|--------2---------
D------------|-----------|---------|------------------
A----------2-|-7--7--5---|-5-5-3---|--------2---------
E-0-0-0-0----|---------5-|-------3-|-0-0-0-----2-3-2--

                                    
Back to C, then A.