Message Board
TR3 - The Left Hand of Darkness
TR3 - On This Mountain Born in Clouds
Tablature

Glimpses
By Tim Reynolds
Tabbed By Adam Garrett

Tuning: Drop D

Intro (w/sound effects & keyboards)
e|--------------|
B|--------------|
G|--------------|:
D|--------------|:
A|-(0)(0)(0)(0)-|
D|--0--0--0--0--|
   pm---------|


Rhy. Fig. 1
e|----------------------------------------------------------------
B|-1-3-7/8\7~--------------------3---3-3~-------------------------
G|------------7-5-7-7~-h9p7\5~---2---2-2~----2-4-4br2-1-2---4-2~--
D|(0)----------------------------0-0-0-0~-----------------0---0---
A|----------------------------------------------------------------
D|----------------------------------------------------------------

e|----------------------------------------------------------------|
B|-1-3-7/8\7~--------------------3---3-3~-------------------------|
G|------------7-5-7-7~-h9p7\5~---2---2-2~--1-2-4-4br2-1-2---4-2~--|:
D|(0)----------------------------0-0-0-0~-----------------0---0---|:
A|----------------------------------------------------------------|
D|----------------------------------------------------------------|


Rhy. Fig. 2
e|-------------------------------------------
B|-----3-4---4-3~----3-4---4-6~----3-4---4-3-
G|-----3-5---5-3~----3-5---5-5~----3-5---5-3-
D|-------------------------------------------
A|-333-----3--------3----3--------3----3-----
D|-------------------------------------------

e|-------------------------------
B|-------------------------------
G|--\5-3-5-8/10\8--5-3-5~-h7p5\--
D|-------------------------------
A|-------------------------------
D|-------------------------------

e|-------------------11h13p11---------------------------------|
B|-4-4---4-3~-\11-13----------13-11-13-13h18p13\--4-4---4-3~--|
G|-5-5---5-3~-------------------------------------5-5---5-3~--|:
D|------------------------------------------------------------|:
A|-----3----------------------------------------------3-------|
D|------------------------------------------------------------|


Rhy. Fig. 3
e|--------------------------------------------
B|-----3-4---4-3~---3-4---4-3-4--4-4-4-4-4~~~-
G|-----3-5---5-3~---3-5---5-3-----------------
D|--------------------------------------------
A|-333-----3-------3----3---------------------
D|--------------------------------------------

e|--------------------------------------------------------------
B|-4-4-3~---3-3-4~---4-4-6~---6-6-4~---4-4-6~---6-6-8~---8-8-9~-
G|--------------------------------------------------------------
D|--------------------------------------------------------------
A|--------------------------------------------------------------
D|--------------------------------------------------------------

e|------------------------------------------|
B|-9br-8~---8-8-6~---6-6-4~---4-4-3~--------|
G|-------------------------------------2~~~-|
D|-------------------------------------0~~~-|
A|------------------------------------------|
D|------------------------------------------|