Message Board
TR3 - The Left Hand of Darkness
TR3 - On This Mountain Born in Clouds
Tablature

Leelines
By Tim Reynolds
Tabbed By David Stanley

Tuning: Standard

- = 1/16 note
1/4 note = about 60
E2---0-5-2-----2-----x---5---7---
B--3-0-----2---------x---5---7---
G------------4-------x---4---6---
D----4---------4-----x-----------
A2-----2-0-------------------5---
E------------------------3-------

E2---0-5-2-----2----2----5---7---
B--3-------2-------2-2---5---7---
G----4-------4----4---4--4---6---
D---4-4--------4-------4---------
A2-----2-0-------------------5---
E------------------------3-------

E2---0-5-2-----2----20---5---7---
B--3-------2-------2--2---5---7--
G----4-------4----4----4---4-----
D---4----------4--------4--------
A2-----2-0------------------5--4-
E-------------------------------5

E2---0-5-2-----2---2-----5---7---
B--3-------2------2------5---7---
G----4-------4---4-------4---6---
D---4----------4-----------------
A2-----2-0-------------------5---
E------------------------3-------