Message Board
TR3 - The Left Hand of Darkness
TR3 - On This Mountain Born in Clouds
Tablature

Dissident
By Tim Reynolds
Tabbed By Jamie McMurrich

Tuning: Standard

Part A
e------0-6—-0--------0-6—-0-6------0-6—-0--------0-6—-0-
b-----6---6—-6------6---6—--6-----6---6—-6------6---6—--
g----7—-7—-7—-7----7—-7—-7—------7—-7—-7—-7----7—-7—-7—-
d---8----------8--8-------------8----------8--8---------
a—-7-------------7-------------7-------------7----------
E-0-------------0-------------0-------------0-----------

Part B
e-0---0------0-0---0—-1—-0--0---0------0-0---0—-1—-0--
b----0------0-----3-3—-3--3----0------0-----3-3—-3--3-
g---5---5—-5-----3---3—-3-----5---5—-5-----3---3—-3---
d—-6---6—-6-----3----------—-6---6—-6-----3-----------
a-3------3-----0------------3------3-----0------------
E-----------------------------------------------------

First time:
e-4----4-4—-4-4-0---0------0-4----4-4—-4-4-0---0------0-
b-----4------------0------0------4------------0------0--
g----5—-5—-5------5---5—-5------5—-5—-5------5---5—-5---
d---6-----6------6---6—-6------6-----6------6---6—-6----
a—-7------------3------3----—-7------------3------3-----
E-0--------------------------0--------------------------

After:
e-4----4-4—-4-4-0---0-0---0-2p0------0---0-0---0-2p0-----0-
b-----4------------3-3---4-----4---4----3-3---4-----4---4--
g----5—-5—-5------3-----4--4----4-4----3-----4--4----4-4---
d---6-----6------3-----4---------4----3-----4---------4----
a—-7------------1-----0--------------1-----0---------------
E-0--------------------------------------------------------

Part C
e--------------------- -------------------------
b--------------------- -0-0---------0-0---------
g----2----2----1----1- ------2----2------1----1-
d---3----3----2----2-- -----3----3------2----2--
a—-4----4----3----3--- ----4----4------3----3---
E-1----1----0----0---- ---1----1------0----0----

e---0---0-----0-0---0-----0-0---0-----0-0---0-0---0-2p0-----0-
b-0----6-6---6-----0-0---0-----0-0---0-----3-3---4-----4---4--
g-----7-----7-----7-----7-----5-----5-----3-----4--4----4-4---
d----8-----8-----6-----6-----6-----6-----3-----4---------4----
a---7-----7-----5-----5-----3-----3-----1-----0---------------
E-------------------------------------------------------------