Message Board
TR3 - The Left Hand of Darkness
TR3 - On This Mountain Born in Clouds
Tablature

Entity
By Tim Reynolds
Tabbed By Patrick Cullip-Brennan

Tuning: Standard

This part repeats throughout the entire song
e--------3-------
b------3---------
g----5-----------
d--7-------------
a----------------
E----------------

e--7-7-8-7-8-3-0------------3-8-7-3-7-7-8-12-10-7-8-8-7-3-
b----------------b5-3-0-1-5-------------------------------
g---------------------------------------------------------
d---------------------------------------------------------
a---------------------------------------------------------
E---------------------------------------------------------

e-0--0--0--0--0-0-
b-0--0--0--0--0-0-
g-2--2--4--x--x-x-
d-3--3--5--7--7-7-
a-3--3--5--7--7-7-
E-1--1--3--5--5-5-

e--8-7-12-15-13-12-10-7-8-12-13-
b-------------------------------
g-------------------------------
d-------------------------------
a-------------------------------
E-------------------------------

e-0--0--0---------0---------0---0--0--0-
b-0--0--0-------6---6-----6-----0--0--0-
g-2--2--4-----5---------5-------2--4--x-
d-3--3--5---7---------7---------3--5--7-
a-3--3--5-----------------------3--5--7-
E-1--1--3-----------------------1--3--5-

e--12-10-8-7-3-7-7-8--
b---------------------
g---------------------
d---------------------
a---------------------
E---------------------

e-0--0--0--0-------
b-0--0--0--0-------
g-2--2--4--x-------
d-3--3--5--7-------
a-3--3--5--7-------
E-1--1--3--5-------

e---------------------------8-10-12-13-
b--------------------------------------
g--2-4-5-9-2-4-2-4-5-9-12/9------------
d--------------------------------------
a--------------------------------------
E--------------------------------------

e-0--0--0---------0---------0---
b-0--0--0-------6---6-----6-----
g-2--2--4-----5---------5-------
d-3--3--5---7---------7---------
a-3--3--5-----------------------
E-1--1--3-----------------------