Message Board
TR3 - The Left Hand of Darkness
TR3 - On This Mountain Born in Clouds
Tablature

Heaven Is In The Heart/High In The West
By Tim Reynolds
Tabbed By Jeff Abeles

Tuning: Drop D

Part A-1:
|----|--5-----10-----14---10-------5-----10-----5---3---------|
|----|:-7-----10-----15---10-------7-----10-----7---3--------:|
|----|--7-----11-----14---11-------7-----11-----7---4---------|
|----|----0-0----0-0----0------------0-0----0-0---0-5---------|
|----|:----------------------6s5----------------------4s5----:|
|--0-|---------------------------0------------------------0---|

A-2
|--5-----10-----14---10-------5-----10-----5---4---------|
|--7-----10-----15---10-------7-----10-----7---5--------:|
|--7-----11-----14---11-------7-----11-----7---4---------|
|----0-0----0-0----0------------0-0----0-0---0-----------|
|-----------------------6s5----------------------4s5----:|
|---------------------------0------------------0-----0---|

A-3
|--5-----10-----14---10-------5-----10-----5---3-----2---|
|--7-----10-----15---10-------7-----10-----7---3-----3---|
|--7-----11-----14---11-------7-----11-----7---4-----2---|
|----0-0----0-0----0------------0-0----0-0---0-5--0--4---|
|-----------------------6s5------------------------------|
|---------------------------0----------------------------|


Part B:
|--------------------3----2-------------------3----3-----|
|--------------------3----3-------------------3----2----:|
|--------------------4----2-------------------4----3-----|
|--------------------5----4-------------4-----5----4-----|
|------------5------------------------5-----------------:|
|--0-0-0-4-7---0-0-0----0---0-0-0-4-7-----0-0----0-------|


Part C:
Use Part A-2 for the verse after playing Part B.
A-2 leads into this, which leads into Part D.
|--5-----10-----14---10-------5-----10-----5---4----2----|
|--7-----10-----15---10-------7-----10-----7---5----3---:|
|--7-----11-----14---11-------7-----11-----7---4----2----|
|----0-0----0-0----0------------0-0----0-0---0-----------|
|-----------------------6s5-----------------------------:|
|-0-------------------------0------------------0--0------|


Part D:
|---------------------4---2---------------------4---2----|
|---------------------5---3---------------------5---3---:|
|---------------------4---2---------------------4---2----|
|--0-0-6b7-6-4b5------------0-0-6b7-6-4b5----------------|
|-----------------------------------------5-4-5---------:|
|----------------0-0--0-0-----------------------0-0------|


Part E-1:
|--1-----1---3-5-1-------------------1-----1---3-5-8-10-->
|--1---1-----3-5-1-3-----3-----3-----1---1-----3-5-8-10-->
|--2-2-----2-------2---2---2------2--2-2-----1----------->
|--------------------0-------0--0------------------------>
|-------------------------------------------------------->
|--3---------5-7-3-0-----------------3---------5-7------->


>---------10----10-----10--|
>---------10----10-----10-:|
>--------------------------|
>--------------------------|
>-------------------------:|
>--0--0-0----0-0---0-0-----|


E-2
|--1-----1---3-5-8-----|
|--1---1-----3-5-8-----|
|--2-2-----2-----------|
|----------------------|
|----------------------|
|--3---------5-7-------|

Part F-1:
|---------7--9-9--7--------------------------------------|
|:-7--9--------------9--7--7--9---------9--9-9--9-9------|
|---------7--9-9--7--------------------------------------|
|--7--9--------------9--7--7--9---------9--9-9--9-9------|
|:-------------------------------------------------------|
|--0----0-----0------0-----0----0--0-0-0--0----0----0----|


|---------7--9-9--7--------------------------------------|
|--7--9--------------9--7--9--7-------------------------:|
|---------7--9-9--7--------------------------------------|
|--7--9--------------9--7--9--7--------------4-7--6------|
|----------------------------------------4-5------------:|
|--0----0-----0------0-----0----0--0-6-7-----------------|

F-2
|---------7--9-9--7-----------------------------------------|
|--7--9--------------9--7--7-5--5-3---5s9-7--7-5--5-3---9-7-|
|---------7--9-9--7-----------------------------------------|
|--7--9--------------9--7--7-5--5-4---5s9-7--7-5--5-4---9-7-|
|-----------------------------------------------------------|
|--0----0-----0------0--0-0--0-0--0--0----0-0--0-0--0-------|


Fills for:
Part F-1
|-----------0---------------------|
|---------4---4-------------------|
|-------4-------4-----------------|
|-----4-----------4---------------|
|---2-----------------------------|
|---------------------------------|


Part E-1 (second part)
|-------10------8-----5-----3-----|
|-------10------8-----5-----3-----|
|---------------------------------|
|---------------------------------|
|---------------------------------|
|---0-12----0-10---0-7---0-5------|