Message Board
TR3 - The Left Hand of Darkness
TR3 - On This Mountain Born in Clouds
Tablature

Try A Little Harder
By Tim Reynolds
Tabbed By Jeff Abeles

Tuning: Standard

Part 1:
|-------12------14------15------14------12-----------------|
|----10------12------14------12------10--------------------|
|----12------11------12------11------12--------------------|
|----11------10------14------10------11--------------------|
|--0-------0-------0-------0-------0---------9h10h12-------|
|----------------------------------------------------------|


|-------10------12------14------12------10-----------------|
|----10------12------13------12------10-------------------:|
|----11------12------14------12------11--------------------|
|----12------10------12------10------12--------------------|
|--0-------0-------0-------0-------0---------9h10h12------:|
|----------------------------------------------------------|

Part 2:
|----------------------------------5---------------|
|----------------------------------5---------------|
|----7-----4-----7-----4---5s6-5s6-----------------|
|----4-----5-----4-----5---6s7-6s7-----------------|
|--0---5-0---7-0---5-0---7----0--------------------|
|--------------------------------------------------|


|------------------------------5-2s3---------------|
|------------------------------5-2s3---------------|
|----7-----4-----7-----4---5s6--------------------:|
|----4-----5-----4-----5---6s7---------------------|
|--0---5-0---7-0---5-0---7------------------------:|
|--------------------------------------------------|

Part 3:
|--------0------0------------3------3--------------|
|-------3------3------------3------3---------------|
|------6------6------------6------6----------------|
|-----5------5------------5------5-----------------|
|---0------0------------0------0------0-0h2--------|
|-----------------3-2p0----------------------------|


|-------5------5------------0-------0--------------|
|------7------7------------7-------7--------------:|
|-----7------7------------7-------7----------------|
|----5------5------------5-------5-----------------|
|--0------0------0-5h7-0-------0------------------:|
|--------------------------------------(0)---------|

Play the zero in parentheses only upon repeating the verse.

Part 4:
|--------------------------------------------------|
|--------------------------------------------------|
|----5-----2-----5-----2---5---2-------------------|
|----2-----3-----2-----3---2---3-------------------|
|------3-----5-----3-------------------------------|
|--3-----3-----3-----3---3---3---5s7---------------|


|--------------------------------7-----------------|
|--------------------------------7----------------:|
|--------------------------------------------------|
|----7-----4-----7-----4---4s6---------------------|
|----4-----5-----4-----5---5s7--------------------:|
|--0---5-0---7-0---5-0---0-----0-------------------|

Part 5:
|--2------2-5s7--4------4--------------------------|
|--3--3-5--------5----2----3p2---------------------|
|----------------4--4----------4-------------------|
|--------------------------------------------------|
|--2-----------------------------------------------|
|----------------0---------------0-----------------|


|--9---------12---9----7---------------------------|
|--7-----10--14---10---9---------------------------|
|-----11-----14---9----9---------------------------|
|--------------------------------------------------|
|--7--------------------------------5--------------|
|---------------0----0----0h4-5-6-7---7s5-0--------|


Basis for Improv Jam
|--------------------------------------------------|
|----5-5---5------------8-8---8--------------------|
|----4-4---4------------7-7---7--------------------|
|----3-3---3------------6-6---6--------------------|
|------------------5----7-7---7-------5------------|
|--3-----3---3-5s7----0-----0---0-5h7--------------|

End
|--------------------------------------------------|
|----5-5---5-5-5------------8----------------------|
|----4-4---4-4-4------------7----------------------|
|----3-3---3-3-3------------6----------------------|
|---------------------------7----------------------|
|--3-----3--------5s7-5-0-0------------------------|