Message Board
TR3 - The Left Hand of Darkness
TR3 - On This Mountain Born in Clouds
Tablature

Feeling Doors
By Tim Reynolds
Tabbed By Jeff Abeles

Tuning: Drop D

Part A
|------------------------------------------0-(2)-----------|
|----3h5-3-1-0-1-------------3h5-3-1-0-1---1--3--5---------|
|----4h5-4-2-0-2-------------4h5-4-2-0-2---2--2--0---------|
|------------------------------------------0--4--2---------|
|--------------------3s5-5---------------------------------|
|--0-----0-------0-0-------0-----0-------0-----------------|


|-------------------------------------------------0-(2)----|
|----3h5-3-1-0-5s8-1----------------3h5-3-1-0-1---1--3--5--|
|----4h5-4-2-0-6s9-2----------------4h5-4-2-0-2---2--2--0--|
|-------------------------------------------------0--4--2--|
|----------------------------5-----------------------------|
|--0-----0-----------0-0-5s7---0--0-----0------------------|


Part B
|------10-10-----------------------------------------------|
|------7--7h8----------------------------------------------|
|------7--7---------------------7---7----------------------|
|-------------------------------4h5-4-----------0----------|
|---------------------5---------------0---0-3b4------------|
|--0-0--------0-0-5s7---7-0-0-0---------0---------0--------|


|----------------------------------------------------------|
|--7-7h8---------------------------------------------------|
|--7-7h9---------------------7---7-------------------------|
|----------------------------4h5-4-----------0-------------|
|----------------5---3-------------0---0-3b4---------------|
|--------0-0-5s7---5---0-0-0---------0---------0-----------|


Part C
|--------------------------------------7---5---------------|
|----3h5-3-1-0-------6s8-----3h5-3-----------8-------------|
|----4h5-4-2-0-------7s9-----4-----4s7---7-----7-----------|
|----------------------------------------------------------|
|--0-----------2s7-0---------------------------------------|
|------------------------0-5-------------------------------|


|--------------------------------------7---5---------10----|
|----3h5-3-1-0-------6s8-----3h5-3-----------8-10s12-------|
|----4h5-4-2-0-------7s9-----4-----4s7---7-----10s12-------|
|----------------------------------------------------------|
|--0-----------2s7-0---------------------------------------|
|------------------------0-5-------------------------------|


|----------------------------------------------------------|
|----3h5-3-1-0-------6s8-----3h5-3-----6-------------------|
|----4h5-4-2-0-------7s9-----4---------7-------------------|
|----------------------------------------------------------|
|--0-----------2s7-0---------------------------------------|
|------------------------0-5-------5s8---------------------|


Part D
|----------------------------------------------------------|
|----------------------------------------------------------|
|------2-0-------4-2------5-4-----9---7---5---4------------|
|------4-2-------5-4------7-5----10---9---7---5------------|
|------------------------------0----0---0---0--------------|
|--0-0-----4s5-5-----3s4-4---------------------------------|


|-----------------------------------------------10---------|
|-----------------------------------------------10---------|
|------2-0-------4-2------5-4-----9---7----9s11-11---------|
|------4-2-------5-4------7-5----10---9---10s12------------|
|------------------------------0----0---0------------------|
|--0-0-----4s5-5-----3s4-4---------------------------------|