Message Board
TR3 - The Left Hand of Darkness
TR3 - On This Mountain Born in Clouds
Tablature

Bitter Sweet
By Tim Reynolds
Tabbed By Mark Schmitz

Tuning: Standard

*=let ring
e----------------6----------
B--------3-6p3-----3-6p3----
G------3-------3---------3-- Repeat to your liking
D----3----------------------
A---------------------------
E-*0------------------------


e--0-0------------0------1-----0---0-0------0-----1-----0--
B-----------3---3---3------3--------------3---3-----3------
G---------3---3-------3------3----------3-------3-----3----
D-------4--------------------------------------------------
A----0-------------------------------3---------------------
E----------------------------------------------------------

There's a couple other cool little parts but there just variations of above.