Message Board
TR3 - The Left Hand of Darkness
TR3 - On This Mountain Born in Clouds
Tablature

Flourescence / Valley Of Flowers
By Tim Reynolds
Tabbed By Jeff Abeles

Tuning: Drop D

Part A:
|----------0-----0-----0-----0-------------------0-----0-----0--------------|
|--------8-----8-----8-----8-------------------8-----8-----8----------------|
|------5-----4-------------------------------5-----4------------------------|
|------------------5-----4-------------------------------4-----0------------|
|---------------------------------------------------------------------------|
|--0----------------------------4--5--7--0----------------------------------|


|---------0-----0-----0-----0--------------------0-----0-----0--------------|
|-------6-----6-----6-----6--------------------6-----6-----6---------------:|
|-----3-----2--------------------------------3-----2------------------------|
|-----------------3-----5--------------------------------3-----0------------|
|--------------------------------------------------------------------------:|
|---0---------------------------3--5--7--0----------------------------------|

Part B:
|---------2--2--3p2p0------0--------------3-----3--2-2-5p3p2p0--------------|
|---------3--3--------3---3---3---------3---3---3--3-3----------------------|
|---------2--2----------3-------------3------3--3--2-2--------3p2p0---------|
|-------0---------------------------5------------------------------4p2p0----|
|-----0---------------------------------------------------------------------|
|--0-------0--------------------5---------------5--4-4----------------------|


|-----------2--2--3p2p0------0--------------3-----3-3s5-5--5s3-3------------|
|-----------3--3--------3---3---3---------3---3-----3s5-5--5s3-3------------|
|-------2---2--2----------3-------------3-------3---3s5-5--5s3-3------------|
|----0--0-----------------------------5-------------------------------------|
|----0--0-------------------------------------------------------------------|
|--0---------0---------------------5----------------------------------------|


|-----------2--2--3p2p0------0--------------3------3--2-2----------0h2h3h5--|
|-----------3--3--------3---3---3---------3---3----3--3-3---0h2h3s5---------|
|-------2---2--2----------3-------------3-------3--3--2-2-------------------|
|----0--0-----------------------------5-------------------------------------|
|----0--0-------------------------------------------------------------------|
|--0---------0---------------------5---------------5--4-4-------------------|


|-----------2--2--3p2p0------0--------------3-----------6----------------10-------10h12-|
|-----------3--3--------3---3---3---------3-----------8---8-----------11----11----11----|
|--------2--2--2----------3-------------3-----3-----7-------7------12----------12-------|
|----0---0----------------------------5---------5s8-----------8s12----------------------|
|----0---0------------------------------------------------------------------------------|
|--0---0-----0---------------------5----------------------------------------------------|

Part C:
|----|----------------------------------------------------------------------|
|----|:--3h5-5---3h5-5--------------------3h5-5---3h5-5--------------------:|
|----|---4h5-5---4h5-5------5--4--2-------4h5-5---4h5-5-------5--4--7-------|
|--x-|----------------------------------------------------------------------|
|--x-|:--------------------3--2--0--------------------------3--2-s5--------:|
|--x-|---------0-------0------------3bp0--------0--------0-------------0----|


|---------------------------------------------------------------------------|
|--0--1s3-3----------------------0--1--3--5--------------------------------:|
|--0--2s4-4----------------------0--2--4--5---------------------------------|
|---------------------------------------------------------------------------|
|-------------------0--2--2---------------------0--3--5--7-----------------:|
|-----------0-0--5-----------0-x-------------0-------------7-0--------------|

Part D:
|----------0-----3---0--------0--------------1-----3---1--------------------|
|--------1---1-----------1------1----------1---1---------1------------------|
|------0-------0---0---0---0-------------2-------2---2----------------------|
|----2---------------------------------3------------------------------------|
|---------------------------------------------------------------------------|
|--2------------------------------2--3--------------------------------------|


|------0-----0-----3---0--------0--------------1-----3---1-----3p1----------|
|----------1---1-----------1------1----------1---1---------1----------------|
|--------0-------0---0---0---0-------------2-------2---2--------------------|
|----------------------------------------3----------------------------------|
|---------------------------------------------------------------------------|
|--0-2------------------------------2--3------------------------------------|


|------------0-----3---0--------0--------------1-----3s5--3--1--------------|
|----------1---1-----------1------1----------1---1-----------1--------------|
|--------0-------0---0---0---0-------------2-------2---------2--------------|
|------2---------------------------------3----------------------------------|
|---------------------------------------------------------------------------|
|--0-2------------------------------2--3------------------------------------|

Part E:
|-----------2--2--3p2p0-------0---------------------------------------------|
|-----------3--3--------3---3-----------------------------------------------|
|-------2---2--2----------3--------Part A-----------------------------------|
|----0--0-------------------------------------------------------------------|
|----0--0-------------------------------------------------------------------|
|--0---------0--------------------------------------------------------------|

End:
|----------2--2--3p2p0------0-------3------3-----3--2-2-5p3p2p0-3p2p0----2--|
|----------3--3--------3---3---3---------3---3---3--3-3---------------3--3--|
|-------2--2--2----------3-------------3---------3--2-2------------------2--|
|----0--0----------------------------------------------------------------0--|
|----0--0----------------------------------------------------------------0--|
|--0--------0--------------------5-------------5-------------------------0--|


Other way that Tim plays the second piece of part B in the rest of the song:
|-----------2--2--3p2p0------0-------3------3-----3-3s5--5h6h8p6p5h6p5------|
|-----------3--3--------3---3---3---------3---3-----3s5---------------8-7---|
|-------2---2--2----------3-------------3-------3---3s5---------------------|
|----0--0-------------------------------------------------------------------|
|----0--0-------------------------------------------------------------------|
|--0---------0---------------------5----------------------------------------|