Message Board
TR3 - The Left Hand of Darkness
TR3 - On This Mountain Born in Clouds
Tablature

Tree of Life
By Tim Reynolds
Tabbed By Mark Schmitz

Tuning: Standard

e------------------------------------------------------------------- 
b------------------------------------------------------------------- 
g----------1-2-------------------------------1-2-------------------- 
d------2/4-----4------2/4--2h4p2---------2/4-----4-----2/4-2h4p2---- 
a----2--------------2------------2-----2-------------2-----------2-- 
E--0--------------0--------0---------0-------------0---0---0-------- 


e------------------------------------------------------------------- 
b------------------------------------------------------------------- 
g----------1-2-------------------------------1-2-------------------- 
d------2/4-----4------2/4--2h4p2---------2/4-----4-----2/4-2h4p2---- 
a----2--------------2------------2-----2-------------2-----------2-- 
E--0-0-0----------0-0-0----0-----0---0-0-0---------0-0-0---0-----0-- 

or 

e----------------------------------------------- 
b----------------------------------------------- 
g----------------------------------------------- 
d----------------------------------------------- 
a------7-9-11-12-9------7-9-7h9p7--------------- 
E--0-7--------------0-7-----------7------------- 


Section B 
e---------------------------------------------------- 
b------------0-----2-----0-----0-----2-----2-----0--- 
g------------1-----2-----1-----1-----2-----2-----1--- 
d------2---------------------------------4----------- 
a----2-----2-----4-----2-----2-----4-----------2----- 
E--0-----0-----0-----0-----0-----0-----0-----0------- 


Section C 
e--0-2-4-----2h4p2-0------0h2p0-------------------------------------------- 
b-------------------------------4----2h4p2-0--0--2----------0-----2---0---- 
g---------------------------------------------1--2----------1-----2---1---- 
d----------2-----------2-----------2-------------------2------------------- 
a---------2-----------2-----------2-----------2--4---2----2-----4-----2---- 
E--0-0-0-0-----------0-----------0-----------------0----0-----0-----0------ 


e--0-2-4-----2h4p2-0------0h2p0--------------5--7---2-2------------- 
b-------------------------------4----2h4p2-0-5--7---2-2------------- 
g---------------------------------------------------------1----1---- 
d----------2-----------2-----------2----------------------2---2----- 
a---------2-----------2-----------2---------------2------2---2------ 
E--0-0-0-0-----------0-----------0--------------0-------0---0---0--- 


Section D 
e--2---4-5---4--2-0--------2---4-2-4/7-7-------- 
b-------------------4--2-0---0------------------ 
g----1-----1-----------------------------1------ 
d-----------------------------------------2----- 
a---2-----2-------2--2-----------------------2-- 
E--0---0-0---0---0--0----0-0---0-0-0-------0---- 


e--2---4-5---4--2-0---0--------0---0---0--*0---- 
b-------------------4--4-2-0---0---0---0--*0---- 
g----1-----1------------------------------------ 
d----------------------------2---2---4---7------ 
a---2-----2------------------2---4---6---9------ 
E--0---0-0---0---------------------------------- 


Section E 
e------------5-------------3-----------5-------------3--- 
b----------3---3---------3-----------3---3---------3----- 
g--------3-------------3-----------3-------------3------- 
d------2-------------2-----------2-------------2--------- 
a----2-------------2-----------2-------------2----------- 
E--0-------------0-----------0-------------0------------- 


Section F(Jam) 
e--/9-7-4-4----------/9-7--4-4--2-2-0-0----------------------------- 
b--/9-7-4-4-------0--/9-7--4-4--2-2-0-0--------0-0-0-x------2-2-2-x- 
g-----------------1----------------------------1-1-1-x------2-2-2-x- 
d-------------2-----------2-----2--------2--2-2------x--2-2-------x- 
a------------2--2--------2-----2--------2---2-2------x--4-4-------x- 
E-----------0--0--------0-----0--------0----0-0---------0-0--------- 
 
 
e------------------------------2-------------------7p5-4------------2-0------- 
b------0-0-0-x-----2-2-2-x-2-2---2-4p2p0----0---2----------0---2--2-----2~p0-- 
g------1-1-1-x-----2-2-2-x------------------1---2----------1---2-------------- 
d--2-2-------x-2-2-------x----------------2---2----------2---2---------------- 
a--2-2-------x-4-4-------x----------------2---4----------2---4---------------- 
E--0-0---------0-0------------------------0---0----------0---0---------------- 


e-------------------------5h7-5-5-7-7-4---------2-4/5-2------------------------ 
b----0---2----------------5h7-5-----------0---2-----------0---2---------------- 
g----1---2--------------------------------1---2-----------1---2---------------- 
d--2---2--------------2-2---------------2---2-----------2---2------------------ 
a--2---4--------------2-2---------------2---4-----------2---4-------------9/11- 
E--0---0---0-2-4-4/12-0-0---------------0---0-----------0---0---0-4-7-9-12----- 
 

e------------------------------------------------------------------------- 
b----0---2--------------------0-0-0-------2-2-2-------0-0-0-------2-2-2--- 
g----1---2--------------------1-1-1-------2-2-2-------1-1-1-------2-2-2--- 
d--2---2----------------2-2-2-------2-2-2-------2-2-2-------2-2-2--------- 
a--2---4-----------7-4--2-2-2-------4-4-4-------2-2-2-------4-4-4--------- 
E--0---0---0-0-4-7------0-0-0-------0-0-0-------0-0-0-------0-0-0--------- 
 

*Order* A,B,C,D,C,A,E,A,C,D,C,F,E