Message Board
TR3 - The Left Hand of Darkness
TR3 - On This Mountain Born in Clouds
Tablature

As Far As You Can See
By Tim Reynolds
Tabbed By Jeff Abeles

Tuning: Drop D

Part A

|--------5-----------3----------0-----------3--5--10s5-5----------3----------0-----|
|----------3-------3----------3---3-------3---------------------3----------3-------|
|------2-----2---2----------2-----------4-----------------2---2----------2---------|
|----0---------0----------0-----------5-----------0---------0----------0-----------|
|----------------------------------------------------------------------------------|
|--0--------------------3-----------5--------------------------------3-------------|


|----------3--5-----------------3-----------0-----------3--5--10s12--8s5-5-----------|
|--------3-------6s3-3--------3---3-------3---3-------3------------------------------|
|------4----------------2---2-----------2-----------4--------------------------------|
|----5-----------0--------0-----------0-----------5-----------0----------------------|
|------------------------------------------------------------------------------------|
|--5--------------------------------3-----------5------------------------------------|


|----------3---------0---0-----------5-----------3---------2------------3--5--10s5-5-|
|--------3---------3-----3---------3---3-------3---------3---3--------3--------------|
|--2---2---------2-------2-------2-------2---2---------2------------4----------------|
|----0---------0---------------------------0---------0------------5------------------|
|------------------------------------------------------------------------------------|
|------------3-----------2-----0-------------------3------------5--------------------|


|----------3---------0-----------3--5------------------3---------0-----3-----3--5-----|
|--------3---------3---3-------3-------6s10--10--3---3---------3---3-------3----------|
|--2---2---------2-----------4-----------------2---2---------2-----------4------------|
|----0---------0-----------5-----------0-------------------0--------------------------|
|-------------------------------------------------------------------------------------|
|------------3-----------5-------------------------------3-----------5----------------|


|--10s12--8s5-5----------3-----------0-----|
|----------------------3---3-------3-------|
|----------------2---2-----------2---------|
|------------------0-----------0-----------|
|------------------------------------------|
|----------------------------3-------------|

Part B

|--------------4s3-2p0-----------0-2---2-----2| 
|----3---3-5-8---------3---3---3-----------3--| 
|------4---------------------2-----------4----| 
|---------------------------------------------| 
|--2-----------0------------------------------| 
|------------------------4-----------2--------| 

|--------------4s3-2p0----3---|-5-| 
|----3---3-5-8---------3--3--:|-3-|
|------4------------------0---|-0-|
|-------------------------0---|-0-|
|--2-----------0----------x--:|-x-| 
|-------------------------3---|-3-| 


Part C

|-----------------------------------------------0-1--|
|------3-----3--------3-----3-----3-----3-----3------|
|----2-----2--------2-----2-----2-----2-----2--------|
|-----------------------0-----2-----3----------------|
|--0-----1-----3--------------------------1----------|
|----------------------------------------------------|


|----------------------------------------------------|
|------3-----3--------3-----3-----3-----3---3--3----:|
|----2-----2--------2-----2-----2-----2----2--2------|
|-----------------------0-----2-----3-----0----------|
|--0-----1-----3-----------------------------0------:|
|-----------------------------------------------0----|


|---------------------------------------|
|------3-----3--------3-----3-----3-----|
|----2-----2--------2-----2-----2-------|
|-----------------------0-----2-----3---|
|--0-----1-----3------------------------|
|---------------------------------------|



Part D

|---------5---8-----8--6-----6-6---8--10--|
|-------5-----8---8----6---6---6--10--11--|
|-----5---------9--------7----------------|
|---7-------------------------------------|
|-----------------------------------------|
|-7----------10--------8------------------|


|---------5---8-----8--6----------------------------|
|-------5-----8---8----6---6---6h8p6----------------|
|-----5---------9--------7---7------5h7p5-----------|
|---7------------------------------------5h7p5------|
|---------------------------------------------5h7p5-|
|-7----------10--------8----------------------------|


|---------5---8-----8--6-----6-6---8--10--|
|-------5-----8---8----6---6---6--10--11--|
|-----5---------9--------7----------------|
|---7-------------------------------------|
|-----------------------------------------|
|-7----------10--------8------------------|


|---------5---8-----8--6------------6-----|
|-------5-----8---8----6--6-------6-------|
|-----5---------9-----------7---7---------|
|---7-------------------------------------|
|-----------------------------------------|
|-7----------10--------8------8-----------|


Part E (Improv section- Fills in parentheses are examples only)


|----------------------------------------------------------------|
|----11-11---10---------------11-11---8-------------------------:|
|----12-12---10---------------12-12---9--------------------------|
|----------------------------------------------------------------|
|---------------------------------------------------------------:|
|--0-------0---(0-0-0-3-0-0-0)------0--(0-0-10h12p10p0-5-3-0-0)--|

End to improv

|-------------------------------------|
|----11-11-----10-----8-----6-----5---|
|----12-12-----10-----9-----7-----5---|
|-------------------------------------|
|-------------------------------------|
|--0-------0-0----0-0---0-0---0-0-----|