Message Board
TR3 - The Left Hand of Darkness
TR3 - On This Mountain Born in Clouds
Tablature

There is no Judgement
By Tim Reynolds
Tabbed By Mark Schmitz

Tuning: Drop D

Heavy Delay 


Main Riff
e------------------------------------------------
B------------------------------------------------
G------6--6-4--------6---6-6--------4h6--6-4-----
D--4-7--------7--4-7---------7--7-4----------7---
A------------------------------------------------
D----------------------0-------------------------
            

the pull of below use fret finger and pluck while pulling off
e----------------------
B-------------------5--
G--------6-6p4----4----
D----4-7--------6------
A----------------------
D--0-------------------


faster section(just part of it)
e--5-5-5-5p3p0----5-5-5-5p3p0--
B------------------------------
G------------------------------
D---------------3--------------
A---------------3--------------
D---------------0--------------