Message Board
TR3 - The Left Hand of Darkness
TR3 - On This Mountain Born in Clouds
Tablature

The Way Farer
By Tim Reynolds
Tabbed By Andrew Northcutt

Tuning: Drop D
A Pentatonic minor

e--------------|--------------|-------------|--------------|
B--------8---6-|--------------|-------3-----|-5-----3------|
G--7-----------|-9-----10---7-|---------2---|---2-----2----|
D------5-------|-----7--------|-----0-----0-|-----0-----0--|
A----5---------|---7----------|---0---------|--------------|
D--5-------5---|-7--------7---|-0-----------|--------------|

                                                                  
e--------------|---------------|-------------|--------------|
B--------8---6-|-------10---10-|-------3-----|-5-----3------|
G--7-----------|-9-------------|---------2---|---2-----2---o|
D------5-------|-----7---------|-----0-----0-|-----0-----0-o|
A----5---------|---7-----------|---0---------|--------------|
D--5-------5---|-7--------7----|-0-----------|--------------|

  
e---5~~-|---5~~--|
B---3~~-|---3~~--|
G---2~~-|---2~~-o|
D---0~~-|---2~~-o|
A---0~~-|---2~~--|
D-0-0~~-|-2-2~~--| 
Just play w/the chords in the 2nd ending.


e---------0---|---------0----||---------0----|
B-------6---6-|-------6---6--||-------6---6--|
G-------------|---2-0-------o||-------------o|
D---7-8-------|-------------o||---7-8-------o|
A-------------|--------------||-0------------|
D-5-----------|-3------------||--------------|