Message Board
TR3 - The Left Hand of Darkness
TR3 - On This Mountain Born in Clouds
Tablature

Stranger In A Strained Land
By Tim Reynolds
Tabbed By Jared Susney

Tuning: Standard

|-3-5-7h8-------|-5-7-8h10-------|-3-5-7h8--------|----7-5-3h5p3-1---1---1-|-5s7-5-3h5p3-0---0---0-|
|---------------|----------------|----------------|------------------------|-------------1--1----1-|
|-4-5-7h9-----0-|-5-7-9h10-------|-4-5-7h9------0-|----7-5-4-----2---2---2-|-5s7-5-4-----0-0-----0-|
|---------------|--------------0-|----------------|------------------------|--------------2--------|
|--------0-0-7--|---------0-0-7--|---------0-0-7--|-0-0-----------0-0-0-0--|-------------0----0-0--|
|---------------|----------------|----------------|------------------------|-----------------------|

|-----3-5-7h8-------|-----5-7-8h10-------|-----3-5-7h8-------|-----7-5-3h5p3-1---1---1-|-5s7-5-3h5p3-0---0---0-|
|-------------------|--------------------|-------------------|-------------------------|-------------1--1----1-|
|-----4-5-7h9-----0-|-----5-7-9h10-------|-----4-5-7h9-----0-|-----7-5-4-----2---2---2-|-5s7-5-4-----0-0-----0-|
|-------------------|------------------0-|-------------------|-------------------------|--------------2--------|
|-0-0-0-0-0--0-0-7--|-0-0-0-0-0---0-0-7--|-0-0-0-0-0--0-0-7--|-0-0-0-0-0------0-0-0-0--|-0---0-0-----0----0-0--|
|-------------------|--------------------|-------------------|-------------------------|-----------------------|

|------8-12p8-8--7--|-----7-10p8p7-7--5--|-----5-8p6p5-5---3--|-------------------|
|----10---------8---|----8-----------6---|----6-----------4---|----3-5p3------5---|
|-7s9----------7----|-5s7-----------5----|-4s5-----------3----|-4-5-----5-4-2-----| x2
|-------------------|--------------------|--------------------|-----------------2-|
|-0------------0--7-|-0-------------0--5-|-0-------------0--3-|-0-------------0---|
|-------------------|--------------------|--------------------|-----------------0-|

|----------------|--------------------|------------------|----------------3-|
|----3-5-5-------|--------3-5-6-------|--------3-5-5-----|-3-5-5p3-------0--|
|-4-5--------5-5-|-----4-5--------5-4-|-----4-5--------5-|--------5-4-2-2---| x2
|------------2-2-|----------------3-3-|----------------2-|-------------3----|
|-0-------0-0----|-0-0-0-------0-0----|-0-0-0-------0-0--|------------------|
|----------------|--------------------|------------------|------------------|

|-------1---1-------0---0-|-------1---1-------0---0-|-------1---1-------0---0-|-------1---1--------0-| 
|------1---1-------1---1--|------1---1-------1---1--|------1---1-------1---1--|------1---1--------1--| 
|-----3---3-------3---3---|-----3---3-------3---3---|-----3---3-------3---3---|-----3---3--------3---| upon repeat follow 
|----0---0-------0---0----|----0---0-------0---0----|----0---0-------0---0----|----0---0--------0----| with these chords in 
|-------------------------|-------------------------|-------------------------|----------------------| same picking pattern: 
|-0-3---------3-3---------|-3-3---------3-3---------|-3-3---------3-3---------|-3-3----------3-3-----| 

|-2-0-|
|-3-2-|
|-4-4-|
|-5-5-|
|-2-0-|
|-----|

|-----5-7-7p5-------|-----3-5-5p3-------|-----5-7-7p5-------|-----3-5-hold5tap17-|
|-5-8-5-5----8-6-5--|-3-6-3-3----6-5-3--|-5-5-5-5----8-6-5--|-3-6-3-3------------|
|-5-5---------------|-3-3---------------|-5-5---------------|-3-3----------------| x 1.5 (play once, then 1st 2 measures
|-----------------7-|-----------------5-|-----------------7-|--------------------|
|-0-0-0-0-----------|-0-0-0-0-----------|-0-0-0-0-----------|-0-0-0-0------------|
|-------------------|-------------------|-------------------|--------------------|

|------------5---10---13-12-|
|----3---6---6---10---11-11-|
|----3---7---7---10---10-10-|
|----3---8------------12-10-|
|-0-0-0-0-0-0-0-0--0-0------|
|---------------------------|

That's the whole song as far as structure, here are some of Tim's embellishments on the first theme to play upon repeat.

|-----3-5-7h8-------|-----5-7-8h10---------|
|-------------------|----------------------|
|-----4-5-7h9-------|-----5-7-9h10---12s10-|
|---------------9s7-|----------------------|
|-0-0-0-0-0--0-0----|-0-0-0-0-0---0-0------|
|-------------------|----------------------|

|-----3-5-7h8---------|-----5-7-8h10-----------|
|---------------------|------------------------|
|-----4-5-7h9---------|-----5-7-9h10-----12s10-|
|-----------------9s7-|------------------------|
|-0-0-0-0-0--0-0-7----|-0-0-0-0-0---0-0-7------|
|---------------------|------------------------|



==============================================================
Mark Schmitz

e---3-5-7-8--------5-7-8-10-------3-5-7-8--------7-5-3h5p3-1--
B---0-5-5-7--------5-5-7-8--------0-5-5-7--------5-5----------
G-------------------------------------------------------------
D----------------5------------5---------------5---------------
A---0-0-0-0--0-5---0-0-0-0--0---5-0-0-0-0-0-5----0-0-0-0-0-0--
E-------------------------------------------------------------


e---3-5-7-8--------5-7-8-10-------3-5-7-8--------7-5-3h5p3-1--
B---0-5-5-7--------5-5-7-8--------0-5-5-7--------5-5----------
G-------------------------------------------------------------
D----------------5------------5---------------5---------------
A---0-0-0-0--0-5---0-0-0-0--0---5-0-0-0-0-0-5----0-0-0-0-0-0--
E-------------------------------------------------------------


e---5-3-1h3p1-0---
B---5-0-----------
G-----------------
D-----------------
A---0-0-0-0-0-0---
E-----------------


e--------8-12\8------------------------7-10p7------------------
B-----10--------10-----8-------------8--------8-----6----------
G---9--------------9-7-------------7------------7-5------------
D-----------------------------5----------------------------5---
A---0----0----0---0----0--0-5------0---0---0----0---0--0-5-----
E--------------------------------------------------------------


e------5-8p5---------------------------------
B----6-------6-----5---------------5p3-------
G--5-----------5-4-----------2-4-5-----2-2---
D-------------------------5------------------
A--0---0---0---0---0--0-5--------------------
E--------------------------------------------