Message Board
TR3 - The Left Hand of Darkness
TR3 - On This Mountain Born in Clouds
Tablature

Smile
By Tim Reynolds
Tabbed By Jared Susney

Tuning: Standard

|-4-5-7-7-7-7-4-----7-4-4p2---------0-2-4--------------------|
|-----5-7-7-7-5-5h7---2-----5-2-0---------5--5-----5---2-2-2-|
|-------------------------------1---------4-4-4---3-3--2-2-2-|
|------------------------------------------------------2-2-2-|
|-----------6-4-----------------2----------5---5-4-----2-2-2-|
|-----0-5-4-----------2-----------0-------3-----2----2-------|

|-4-5-7-7-9-9-7-7-7-7-4-----7-4-4p2---------0-2-4--------------------|
|-----5-5-9-9-7-7-7-7-5-5h7---2-----5-2-0---------5--5-----5---2-2-2-|
|---------------------------------------1---------4-4-4---3-3--2-2-2-|
|--------------------------------------------------------------2-2-2-|
|-----------------6-6-4-----------------2----------5---5-4-----2-2-2-|
|-----0-0-5-5-4-4-------------2-----------0-------3-----2----2-------|

|---5---7----12-7-----------4---------5-|
|-5---9---12----7-7-5-5-5-7---5-5-5-8---|
|-5---8---9---------4-4-------5-5-------|
|-7---7-----------------------5-5-------|
|---------9-----4---4-4-----------------|
|-7---7-----------------------6-6-------|

|---5---7----12-7-----------4-----*-0-2-4-----------------0-| 
|-5---9---12----7-7-5-5-5-7---5-5-*-------5--5-----5---5----|
|-5---8---9---------4-4-------4-4-*-------4-4-4---3---2--1--|
|-7---7---------------------------*------------------2---2--| after *'s: repeat 2ce
|---------9-----4---4-4-----------*--------5---5-4--2-------|
|-7---7-----------------------4-4-*-------3-----2--------0--|


|-0-4-7-12-|
|-------12-|
|-------11-|
|----------| the end.
|----------|
|-------0--|





==========================================================

Mark Schmitz

(first minute of song)

                      0:07                       0:11
e--4-5-7--7--7--7-------4-7--2-4p2-0-----0-2-4------------
B------7--7--7--7--5--5------2-----0-2-0-------5-----5----
G------------------4-----------------2-1------------4-4---
D----------------------------1---------------------4------
A---------0-----6--4-----------------0-2------------------
E------0-----4-----------------------------------4--------

                      0:15                       0:18
e---------------------4-5--7---7--9---9--7---7-----4-7--
B------5----------0----------7------9------7-----5------
G--2-2---4--2---2---------------------------------------
D-------------0--------------------------------6--------
A-----------2---------------------0------6--------------
E---2----------------------0----------------------------

                         0:23                  0:28
e--2-4p2-0-----0-2-4-----------------------------5---7----12--
B--2-----0-2-0-------5-----5-------5----2-2-2--5-5-7-7-12-12--
G----------2-1------------4-4--2-2---4--2-2-2--4---6---11-----
D--1---------------------4------------------------------------
A----------0-2--------------------------2-2-2--4---6---11-----
E----------------------4--------2-----------------------------

             0:32                       0:37
e---------------4-5-------4-5---5---7-------12------------4-5--
B--12--7--5-5-5-----5-5-5-----5-5-7-7----12-12-12-7-5-5-5------
G--11--6--4-4-------4-4-------4---6------11----11-6-4-4--------
D--------------------------------------------------------------
A--11--6--4-4-----------------4---6----11------11-6-4-4--------
E-------------------4-4----------------------------------------
    
         0:40            0:42                      0:45
e--------2-------------------------------0--4-5-7-------------------
B--5-5-5---5-5------5-5---------------------------------------------
G--4-4------------4-4-4--4---4--4---4--2----------4---4-4---4--2----
D----------------4-------4---4--3---3--2----------4---4-3---3--2-2--
A--4-4-----------------------------------------------------------2--
E--------------4-----------4------3-----------------4-----3---------

   0:48                                     0:54
e--4-5-7---7--9---9--7---7-----4-7--2-4p2-0-------
B--------7------9------7-----5------2-----0-2-0---
G-------------------------------------------2-1---
D--------------------------6--------1-------------
A-------------0------6----------------------0-2---
E------0------------------------------------------

   0:55                                   0:58...
e--7-----------------------------------5-4-2-------
B----7-------------------5-5-3-----2-5-------------
G------8---------11-9----4-4-2-2-4-----------------
D--------9-10-11-----------------------------------
A------------------------4-4-2---------------------
E----------------------4---------------------------