Message Board
TR3 - The Left Hand of Darkness
TR3 - On This Mountain Born in Clouds
Tablature

Open Up and Let It In
By Tim Reynolds
Tabbed By Tidoublemy

Tuning: Standard

-This song repeats itself, so if you learn the first minute and thirty seconds or so, you'll know practically the whole thing. 
-There are four major parts to the song, i'll label them A, B, C, and D. 
-The format of the song is A,A,B,B,C,D (REPEAT) A,A,B,B,C,D
-Keep in mind that that there is a lot of nuance and subtlety in this song that is hard to tab out - you just have to listen to the original.
-This tab also doesn't represent the timing in any way - just the notes. Again, you'll have to listen to the song. 



PART A


e|----------------------------------------------------------------|
B|--5p3-5-----------------------------0--3p1-0--------------------|
G|--------(x)-2h4--------2---0------------------2----2--------2---|
D|---------------------4---4---4-2-----------------2----2---2-----|
A|------------------(2)-------------------------0---------0-------|
E|----------------0----------------------0------------------------|

e|----------------------------------------------------------------|
B|--3----------3--------------------------------------------------|
G|-----2---2------2---2h4---------2---0---------------------------|
D|-------0----------0-----------4---4---4--2----------------------|
A|---------------------------------------------------2---0--------|
E|--3----------3-------------0------------------0--3---3----3--0--|

e|-------------------(R)------------------------------------------|
B|-------------------(E)------------------------------------------|
G|-------------------(P)------------------------------------------|
D|-----2---0---------(E)------------------------------------------|
A|--4----4---4--2----(A)------------------------------------------|
E|-------------------(T)------------------------------------------|


PART B

                     (Am)
e|--0-3-5-(3)-5p3p0---------0-0-0----------0----------------------|
B|--------------------------1-1-1--------1---1--------------------|
G|-----------------------2-------------2-------2------------------|
D|---------------------2------------------------------------------|
A|-------------------0--------------------------------------------|
E|----------------------------------3-----------------------------|

   (Cmaj)    
e|---------0------------------------------------------------------|
B|-----------1-------------0--3--5-(3)-5p3p0----------------------|
G|------0------0--------------------------------------------------|
D|----2----------2------------------------------------------------|
A|--3---------------2---------------------------------------------|
E|----------------------------------------------------------------|

e|-----------------------------------------------------------(R)--|
B|-----------------------------------------------------------(E)--|
G|------2---0---------------------------------2----0---------(P)--|
D|----4---4---4--2--------------------------4---4----4--2----(E)--|
A|-------------------------2-----0---------------------------(A)--|
E|--0-----------------0--3-----3-----3--0--------------------(T)--|



PART C

e|--0-----0-------------------------------------------------------|
B|----0h3----0-------0--------------------------------------------|
G|--------------0h2-----0-------0---------------------------------|
D|-------------------------0h2-----0-------0----------------------|
A|------------------------------------0h2-------------------------|
E|----------------------------------------------------------------|


  (Dmaj)
e|--2------------2------------2-----------2-----------------------|
B|------------3-----------3-----------3----------3----------------|
G|---------2------------2-----------2----------2------------------|
D|------0------------0-----------0-----------0--------------------|
A|----------------------------0-----------0-----------------------|
E|--3------------3------------------------------------------------|

e|--3----------3---2---3--------3--3p2p0--------------------------|
B|---------3-----------------3------------3-----------------------|
G|-------2-----------------2--------------------------------------|
D|-----0-----------------0----------------------------------------|
A|----------------------------------------------------------------|
E|--0----------0-------0--------0---------------------------------|



e|--2------------2------------2-----------2-----------------------|
B|------------3-----------3-----------3----------3----------------|
G|---------2------------2-----------2----------2------------------|
D|------0------------0-----------0-----------0--------------------|
A|----------------------------0-----------0-----------------------|
E|--3------------3------------------------------------------------|

e|--3--------3---5---7--7--7--7-----------------------------------|
B|--------3------3---8--8--8--8-----------------------------------|
G|------2---------------------------------------------------------|
D|----0-----------------------------------------------------------|
A|----------------------------------------------------------------|
E|--0--------0----------------------------------------------------|



e|--2------------2------------2-----------2-----------------------|
B|------------3-----------3-----------3----------3----------------|
G|---------2------------2-----------2----------2------------------|
D|------0------------0-----------0-----------0--------------------|
A|----------------------------0-----------0-----------------------|
E|--3------------3------------------------------------------------|



PART D

e|--7p3h5h7---5p3p0---------0h3-----------------------------------|
B|-----------------------3----------------------------------------|
G|----------------------------------------------------------------|
D|------------0---------------------------------------------------|
A|--------------------0-------------------------------------------|
E|--0-------------------------------------------------------------|

e|--0----------------0--------------------------------------------|
B|-----3p0-----0h3------3p0-----0h3-------------------------------|
G|----------2----------------2------------------------------------|
D|----------------------------------------------------------------|
A|----------------------------------------------------------------|
E|--3-------3--------3-------3------------------------------------|

e|--7p3h5h7---5p3p0---------0h3-----------------------------------|
B|-----------------------3----------------------------------------|
G|----------------------------------------------------------------|
D|------------0---------------------------------------------------|
A|--------------------0-------------------------------------------|
E|--0-------------------------------------------------------------|

e|--0----------------0---------------0------------0---------------|
B|-----3p0-----0h3------3p0-----0h3-----3p0---0h3----3p0---0h3----|
G|----------2----------------2--------------2------------2--------|
D|----------------------------------------------------------------|
A|-----------------------------------0------0-----2------2--------|
E|--3-------3--------3-------3------------------------------------|

e|--0----------------0---------------0--------------2-------------|
B|-----3p0-----0h3------3p0-----0h3-----3p0---0h3---3-------------|
G|----------2----------------2--------------2---------------------|
D|----------------------------------------------------------------|
A|-----------------------------------0------0-------2-------------|
E|--3-------3--------3-------3------------------------------------|