Message Board
TR3 - The Left Hand of Darkness
TR3 - On This Mountain Born in Clouds
Tablature

Offspring
By Tim Reynolds
Tabbed By Mark Schmitz

Tuning: Standard

Note: It's easiest to use your middle finger and hold it on the bassline
note (E-3-3-3) and hold your ring finger and hold the high e and b 3rd fret 
notes. Use your index and pinky finger to play the other note.

Section A
e----------3-----------------3-5-7-3-----3----------3----------------
B--------3---3---------------3-3---3-----3--------3------------------
G--0-2-4-------2-2-2-0h2p0-4-----------2----0-2-4-----2-0--0-0-0--0--
D----------------------------------------------------------0-0-0--0--
A----------------------------------------------------------0-0-0-----
E--3-3-3-3-3-3-3-3-3-3-3-3-3---------3------3-3-3-3-3-3-3--3-3-3-3---
                                                          ^ v ^ 

Section B
e---3h5h7---7---7--7p5p3---7-3-5-7----7-7-5-3-------------
B-----------0--0--0-------0-----------7-7-5-3--\3-3-3--3--
G-------------0--0--0----0---------------------\4-4-4-4---
D---------5--0--0--0----0-----------5---------------------
A--------5-------------------------5----------------------
E-------3-------------------------3-----------------------


Section C
e---3-2-0-----3----2----0------------------
B------------------------------------------
G-----------2-2----4----2------------------
D----------2---2----4----2---0---0---------
A---------0-----0----2----2---2---0--------
E------------------------------3---2---0---


Section D, like all the rest of Tim's songs, there's tons of improv.



Offspring
by Tim Reynolds
tabbed by fis
from csu lory video and mp3 on the ftp

* means listen to the song for rhythm

Standard Tuning


Part 1
e------------3------------------------------3-5-3-----------3----------------3-----------3-
B----------3---3-------------------------0--3-5-3---------3------------0--3--3--3--------3-
G--0--2--4-----2---2---2---2--4p2--0--2-----------------0--------0--2-----------2---2-0--0-
D-----------------------------------------------------0-----------------------------2-0--0-
A-------------------------------------------------------------2-------------------3------2-
E--3--3--3-3-----3---3---3---------1--1--1---------1-------------0--0--0-----------------3*


Part 2
e---3h5s7----7---7---5p3----------7-------7---10--------
B------------0---0---------0---0------------------------
G--------------0-------------0--------7---------------7-
D----------0-------0-----0----------7---------------7---
A---------------------------------8-----8---8-----8-----
E--------3----------------------------------------------

e--------7----------7--7---------------
B--8-10-------------8--8--10--8---3--3-
G---------------------------------2--2-
D----------------9----------------0--0-
A-------------7------------------------
E----------0-----------8--------8\3--3-


Part 3
e---3-2-0----0--3------2--------------------------
B-----------------1------3----3-----0---0-----0---
G-------------------0------2----2-----2-----2-----
D----------2-----------0----------0---------------
A---------------0-------------------2-----0-------
E---------0-------------------2-----------------3-


Part 4 
e----------------------0-----------0------------0-2-3-5-7--------
B-3h4p3-1p0h1--------1---1-------1---3--------3--------------0-1-
G------------------0-----------0------------0--------------------
D----------------4-----------4------------4----------------------
A--------------0------------------------2------------------------
E--------------------------0-------------------------------6-----

e-----------0-----------0------------0-2-3-5-7-
B---------1---1-------1---3--------3-----------
G-------0-----------0------------0-------------
D-----4-----------4------------4---------------
A---0------------------------2-----------------
E--------------0-------------------------------


IMPROV from csu vid
e-------------------------------------------
B--------0--3---3-3---3-3--3h4p3-1p0h1------
G--0-2-4--------0-0---0-0-------------------
D-------------------------------------------
A----------------------------------------3--
E-------------3-----3------------------1----


e------3--7--3--5------3----------------
B--3h5--------------------5-----3-------
G------------------------------------4--
D---------------------------------------
A---------------------------3-3----3----
E------------------0-0------------------


e----------------------------------------------
B-------------------------8--------------------
G--4--4--5--4---4--5-6-7--7---4--4--5--4--5-5--
D----------------------------------------------
A----------------------------------------------
E--3--3--5--3---3--5-6-7------3--3--5--3--5-5--


e------------------------------------0---------0---
B------3--1p0------------0-----------0---------1---
G---2---------2p0--------------------0---------0---
D-----------------3p2p0----2p0----2---------2------
A---------------------------------2-------3--------
E-1---1-------------------------0------0--3--------


e--------------------------------------------------------------------
B---3-----8----8---8----8--8-----8---7---5---3---1p0-----------------
G---4-----7----7---7----7--7---0---0---0---0---0-----2p0-------------
D---------------------0----------------------------------3p2p0h2h3---
A------------7---5---------------------------------------------------
E-3---3/7------------------------------------------------------------


e-------1---/8-7-5--------------------7----7--
B-------1----------8-6-5---5-6/7/8----8----8--
G------------------------7------------7----7--
D-----2-------------------------------9----7--
A---3---------------------------------7-------
E-1---------------------------------0----8----


e------------------------------3-------------------7-5-7-5------------
B-----12---10---8---7---5---3--3-----------8-------8-8-8-7------------
G------------------------------0-----------7-------7-7-7-7------------
D------------------------------0--G*-------0--0-0---------------------
A--10----9----7---5---3---2----2--------------------------------F*----
E------------------------------3----------/7---------------0-1--------


e-----------------------------------7--------------
B-----------------------------------8----8-----7-7-
G-----------------------------------7----7-----7-7-
D----5-7-9-----7-5-7------5---5-----9--------------
A--7--------------------7---7---/10----7---0-5-----
E--------0-0--------0-8----------------------------


e-------------------------7---7-----7---------
B----------3---5---3------8-----10-------12--
G-0--2--4-----------------7--------------9---
D---------------------F*--9------------------
A--strum G all along------7--------------10--
E-------------------------0-----------0--8---
* *

e-----15---12----10-----------
B-------------------12-----10-
G-----------------------------
D-----------------------------
A-/10----10---10-------10-----
E-----------------------------


e-5h6h8p6p5-----------------------------------------------------------
B-----------8p6p5---5h6h8p6p5-----------------------------------------
G-----------------7-----------7p5/4h5h7p5p4\2p0-------0---------------
D-----------------------------------------------3p2p3---3p2p0---------
A-------------------------------------------------------------3p2p0---
E-------------------------------------------------------------------0-


e-----7--10----------------
B-----8--------------------
G-----7--------------------
D-----9-----------5--------
A-----7---------7---7---7--
E-F*--0-----0-8-------8----


e-------------------------------------------------------------------------
B----3--------------------------------------------------8-7-6-6-6-6-6-6-7-
G--------------------------------------7---7---7---7----7-6---------------
D-------------------------5---7-8-9--9---9---9---9---9--9-8--7-7-7-7-7----
A-----------------5--5-7--------------------------------------------------
E--3---3--5-6-7-----------------------------------------------------------


e---------------------------------
B--7-----7-------------8-------8--
G------7---7---------7---7--------
D----5-------5--------------------
A---------------------------------
E---------------0--8--------8-----


e-------------------------------------------------------------------------------------
B--------10--10---12---12---12---12----12----12---12--12---12---12--12--12----11---11-
G-------------------------------------------------------------------------------------
D-------------------------9----9----12----12----9---9---------------------------------
A--10--10--10--10---10-----------------------------------12--12---10--10----9----9----
E-------------------------------------------------------------------------------------


e-------------------------------------------------------------
B----10---10---10---10----10----10---10--10--10--10--10--10---
G-------------------------------------------------------------
D------------7----7----10----10----7---7----------------------
A--8---8-----------------------------------10--10---8--8------
E-------------------------------------------------------------


e------7-------12---10----8-----7---7---5---3---------
B------8-------12---10----8-----8---8---7---5---------
G------7----------------------------------------------
D------9----------------------------------------------
A----7-7---------------------10---7---5---3---2-0-----
E--0------0--8----8-----8---------------------------G-