Message Board
TR3 - The Left Hand of Darkness
TR3 - On This Mountain Born in Clouds
Tablature

No Other
By Tim Reynolds
Tabbed By Mark Schmitz

Tuning: Standard

Section A
e----------------------------------------------------------------
B----------------------------------------------------------------
G---0-2-4-0----------------0-2-4-0--------------0-2-4-0----------
D-----------2--2--2--2-------------2--2--------------------------
A---0-0-0-0-2-2--2--2-2h3--0-0-0-0-2-2-2-2h3-2--0-0-0-0-3-5-3-2--
E----------------------------------------------------------------


e------------------------3-5-7-3------------------3-5-7-3------0-0-0---0-0-0--
B--------------------------------5------------------------5----0-0-0---0-0-0--
G---0-2-4-0-------------------------------------------------------------------
D-----------2--2------------------------5---4---2-----------------------------
A---0-0-0-0-2-2-2-2h3-2--0-0-0-0-0--2-2---2---2---0-0-0-0-0--2-------2--------
E-----------------------------------------------------------------------------


e--3-5-7-3------------------3-5-7-3------0-0-0-----0--5-7-3-----------0----------
B----------5------------------------5----0-0-0-----0--------5-------0---------0--
G----------------0---0--------------------------------------------0---------0----
D--------------2---2---2---------------2------------------------2---------2------
A--0-0-0-0-0-2-----------2--0-0-0-0-0----------0-2----0-0-0-0-----------0--------
E--------------------------------------------------------------------------------


e------------------0------------------
B----------------0---------0----------
G---2-4-0------0---------0------------
D---------2--2---------2--------------
A---0-0-0-2----------0----------------
E-------------------------------------


Section B (fast strum)
e------------------------------------------------------------------0--------
B--------------->2----->2------------------------>2------>2----2-3---3-2----
G------->2---->2----->2---0-2-4-0-------->2---->2------>2----4-----------4--
D----->2-----2------2-------------2---->2-----2-------2---------------------
A----2-----0------2-------------------2-----0-------2-----------------------
E--2--------------------------------2---------------------------------------


e---------------------------------------------------------------------
B--------------->2----->2------------------------>2------>2-----------
G------->2---->2----->2---0-2-4-0-------->2---->2------>2----2-4-0----
D----->2-----2------2-------------2---->2-----2-------2------------2--
A----2-----0------2-------------------2-----0-------2-----------------
E--2--------------------------------2---------------------------------


Section C is just another big improv section