Message Board
TR3 - The Left Hand of Darkness
TR3 - On This Mountain Born in Clouds
Tablature

And Then They Were Free
By Tim Reynolds
Tabbed By Jared Susney

Tuning: Standard

Intro:
e----------0-------0-------0-------0-------0------|
B-------------------------------------------------|
G---4h6p4-4-2h4p2-2-1h2p1-1-6h8p6-6-4h6p4-4-------|
D-------------------------------------------------| x4
A-------------------------------------------5s7---|
E----------------------------------------------0--|

Verse:
e---4---4-----4-7-5-------0-----------------|
B---5--5-5----5-7-5-7----7---------7-9p7-5--|
G---6-6-------6-----8---8----------8--------|
D----7--------------9--9-----------9--------| x2 
A---4---------4-------9---------------------|
E---------0-4-------0------0-7-0-0-0--------|

e---4---4-----4-5-7--14------14---------14-12-12-12-----12------12s14--11-----11-11--|
B---5--5-5----5------12----12--12-------12-10-10-10---10--10----10-----12---12---12--|
G---6-6-------6------11--11------11-----11--9--9--9--9------9----9-----11-11-----11--|
D----7-----------------13--------------------------11-----------11-------9--------9--|
A---4---------4-----------------------------------0----------------------------------|
E---------0-4---------0------------0-12-0--0-----------------0-9--------0------------|

e---4---4-------4-7-5-----0------0-----0-----------7------0------0--|
B---5--5-5------5----7---7------7-9---9--------9-10--7---7------7---|
G---6-6---6-----6----6--6------6--8--8---------8-----6--6------6----|
D----7---------------7-7------7---9-9----------9-----7-7------7-----|
A---4-----------4-----------------------7-9-------------------------|
E----------0-4-4-----5-----0-5----7--------7-7-7-----5-----0-5------|

e-------0---2---4-2-0-5---7---9---11--|
A---4-----4-4--4------5--5--5-9--9----|
D---4--4-4--4-4-------6-6--6--9-9-----|
G---2-2-----------------------7-------| x2
B---4---4---4---4-----0---------------|
E-------------------------------------|

e---13b14p12-------8b9p7---7-5--| 
B-----------12-------------0-0--| 
G-------------13--------8--8-6--| 
D---------------14-------9------| x2 
A------------------0------------| 
E---0---------------------------| 

If you don't like to bend, play below twice...

e---12h14p12---------9p7---7-5--|
A-----------12-------------0-0--|
D-------------13--------8--8-6--|
G---------------14-------9------| x2
B------------------0------------|
E---0---------------------------|


e---0---0--0------0------0---0---2-0-2-0-4---4-----4-5-7-------------------|
B---0--0-0---0h2h4-4p2p0-0-------2-0-2-0-5--5-5----5-----7---7--7s9-7-5-4--| I play this very slightly 
G---2-2------------------4--4-4--4-4-4-4-4-4-------4-----6--6-6-6s8-6-4-2--| <-- differently from Tim, but sounds
D----2----2----------------4---4----------4--------------7-7----7s9-7-6-4--| fine. 
A----------------------------------------4---------4------------------0-2--|
E---2--------------------4---------------------0-4-------7-----------------|

e---0---0--0------0------0---0---2-0-2-0-4---4-----4-5-7-----------|
B---0--0-0---0h2h4-4p2p0-0-------2-0-2-0-5--5-5----5-----7---7--7--| Rinse
G---2-2------------------4--4-4--4-4-4-4-4-4-------4-----6--6-6-6--| and 
D----2----2----------------4---4----------4--------------7-7----7--| Repeat
A----------------------------------------4---------4---------------|
E---2--------------------4---------------------0-4-------7------7--|


=============================================================
Mark Schmitz

Section A
e----------0---------0---------0---------0---------0---------
B------------------------------------------------------------
G--4h6p4-4---2h4p2-2---1h2p1-1---6h7p6-6---4h6p4-4-----------
D------------------------------------------------------------
A-----------------------------------------------------2/4----
E---------------------------------------------------------0--


Section B     (0)=Play note very soft
e---4--------4-------4-4--4-7-4--2-----2-------2-2-4p2p0-2--
B---5------5-5-------5-5--5-5-5--4----4--------4-4-4-----4--
G---6----6-----------6-6--6-6-6--4---4---------4-4---------- Repeat
D-----------------------------------------------------------          
A---0--0-----------0-------------0-0---------0--------------
E--------------0-4-----------------------0-4----------------


e---4--------4-------4-4-4-5/14-----14---14-----14--
B---5------5-5-------5-5-----12---12--12-12---12----
G---6----6-----------6-6--------13----------13------
D---------------------------------------------------
A---0--0-----------0---------(0)---------(0)--------
E--------------0-4----------------------------------


e--12-12-----12---12-----12/14-11----11--11----11--
B--10-10---10--10-10---10----------12--12----12----
G--------11----------11----------13--------13------
D-------------------------------------------------- Then Repeat whole Section
A--(0)------------(0)------------(0)---------------
E--------------------------------------------------


Section C
e---0------0----2---4---5-----7----9---11-12--
B-----4-------4---4-------5-----5----5--------
G-------4-------------------6-----------------
D---------------------------------------------
A---4------4------------0-----0----0----------
E---------------------------------------------


Section D           {-----------}               {--------------}
e---/16-12-------------12--------------0----      ----12-7--------
B----------12-------------12-9-------4------      ---------9------
G-------------13---------------9-------4---- or   -----------9----
D----------------14--------------9---------- play -------------9--
A-------------------0-0---------------------      ----------------
E-------------------------------------------      ----------------