Message Board
TR3 - The Left Hand of Darkness
TR3 - On This Mountain Born in Clouds
Tablature

Loose Interpretations
By Tim Reynolds
Tabbed By Jeff Abeles

Tuning: Drop C

Part A:
|-------------3-x--------3---3---------------3-x---------3--3--| 
|-------------4-x--------4---4-------6-4~----4-x---------4--4-:| 
|-----5-3-----3-x--------3---3---3-5---------3-x---------3--3--| 
|-3-5----------------------------------------------------------| 
|------------3--------3-----3---------------3--------3-----3--:| 
|-3-5---0--x------3-5---0------x-3-5---0--x------3-5----0------| 


Part B:
|-6-8-10s11-------------------------------------| 
|-6-8-10s11------------------10-8--------------:| 
|----------------------10-8--10-8---------------| 
|----------------------10-8--10-8-10------------| 
|----------------------------------------------:| 
|-3-5-------0-0h10h12-0--0-----0-----0h3-5-6-7--| 


Part C:
|---------------------------------------------------------------|---------------------|
|-4h5-5--4h5------------6h7-7-6h7---------7h8-8-7h8-------------|:-6h7-7-6h7---------:|
|-4h6-6--4h6------------6h7-7-6h7---------7h9-9-7h9-------------|--6h7-7-6h7----------|
|---------------------------------------------------------------|---------------------|
|-0-----0----0h4-0h5-4--0----0------------0----0----0h4p0-5p4p0-|:-0----0------------:|
|---------------------------------0h7-6-4-----------------------|------------0h7-6-4--|


End part C:
|---------------------|
|:-8--7--6--5--4-4-4--|
|--7--6--5--4--3-3-3--|
|---------------------|
|:-7--0--5--4--3---3--|
|---------------------|