Message Board
TR3 - The Left Hand of Darkness
TR3 - On This Mountain Born in Clouds
Tablature

Letting Go
By Tim Reynolds
Tabbed By Jeff Abeles

Tuning: Drop D

Sample for looping.
|----0--0--0------|
|-----6--6--6-----|
|------7--7--7----|
|-----------------|
|-----------------|
|-----------------|

Part A:
|------------------------------------------------------------|
|-----------------------------------------------------------:|
|----2-3-5--3h5p3p2-3-----2h3p2p0-2-----0-2------------------|
|----0-0-0--0-------0--0--0-------0-----0-0------------------|
|------------------------------------0----------------------:|
|--0-----------------------------------------3p0-------------|


|------------------------------------------------------------|
|----3-3-3--3-------3-----3-------3-----3-3-----------------:|
|----2-3-5--3h5p3p2-3-----2h3p2p0-2-----0-2------------------|
|----0-0-0--0-------0--0--0-------0-----0-0------------------|
|------------------------------------0----------------------:|
|--0-----------------------------------------3p0-------------|

Part B:
|------------------------------------------------------------|
|------------------------------------------------------------|
|---2-3-5s12s10---10-10---10---10s5--------------------------|
|---0-0-0-------0-------0----0-0--0--------------------------|
|------------------------------------------------------------|
|-------0----------------------------------------------------|


|------------------------------------------------------------|
|------------------------------------------------------------|
|--5s2-3-5s12s10---10-10---5---3-----------------------------|
|----0-0-0-------0-------0-5---3---0-------------------------|
|------------------------------------------------------------|
|--0-----0-------------------0------3h5-0--------------------|


|-----------------6------8----------5-6-8--------------------|
|----------6-6-6-----8---------------------------------------|
|---2-3-5--5-5----7------9-----------------------------------|
|---0-3-5------8-----10------7-8-10--------------------------|
|------------------------------------------------------------|
|----------0-------------------------------------------------|

Part C:
|----------------------------0---------------------------0---|
|--------------------------3---------------------------3----:|
|------2-----2-----2-----2---------2-----2-----2-----2-------|
|----5-----5-----5-----5---------5-----5-----5-----5---------|
|-----------------------------------------------------------:|
|--3-----3-----3-----3---------0-----0-----0-----0-----------|


|--------------1-3-5---5-5---3-------------1-3-6-5-1s3-------|
|------------3-1-3-5---5-5---5-----3-----3-1-3-6-5-1s3-------|
|------2-----2---------------------2-----2-------------------|
|----0-----0-------------------------------------------------|
|------------------------------------------------------------|
|--3-----3-----------3-----3---0-0---0-0-0------0------------|