Message Board
TR3 - The Left Hand of Darkness
TR3 - On This Mountain Born in Clouds
Tablature

Jemez Rolling Waves
By Tim Reynolds
Tabbed By Jared S.

Tuning: Standard

Part A

e---7------------------|---5-----------------|---5-3p0-------------------|
B--5-------------------|--5------------------|--5-----3------------------|
G-4--------------------|-4-------------------|-4-------------------------|
D------------------2-2-|-----------------2-2-|-----------------------2-2-|
A--------5----5--------|-------5----5--------|-------------5----3--------|
E-----5-5--3-3--0-0----|----5-5--3-3--0-0----|----------5-5--3-3--0-0----|

e---7------------------|---5---------------------|---5-3p0----------------|
B--5-------------------|--5----------------------|--5-----3---------------|
G-4------5----4----0-0-|-4-----5----4----6s7-6s7-|-4-----------5----4-----| To Part B
D--------5----5----2-2-|-------5----5----8s9-8s9-|-------------5----5-----|
A----------------------|-------------------------|------------------------|
E-----5-5--3-3--0-0----|----5-5--3-3--0-0--------|----------5-5--3-3--0-0-|

Part B

e--0-0-0----------|--0-0-0------------|--0-0-0----------|--0-0-0---------------|
B--0-5-3----------|--5-5-5------------|--0-5-3----------|--5-5-5----------0----|
G-/4-4-4----------|-/7-5-4------------|-/4-4-4----------|-/7-5-4---------0-0---| To Part C
D-------------2-5-|--------------2-4--|-------------2-5-|-------------2-4---4--|
A-----------2--2--|-----------2-2-3---|-----------2--2--|-----------2--3-----3-|
E--------0-0-0----|--------0-0--------|--------0-0-0----|--------0-0-0---------|

Part C 

e-----------------------------------| |---------------2-----------------2p0----------------0------------|
B-0-3-0-3s5-0-3-0-3s5-0-3-0-3s5-3---| |-0-3-0-3s5----3-3---0-3-0-3s5---2---2-0-3-0-3s5----3-3----3-3-3--|
G-0-2-0-2s4-0-2-0-2s4-0-2-0-2s4-2-2-| |-0-2-0-2s4---4---4--0-2-0-2s4--0------0-2-0-2s4---2---2---2-2-2--| To Improv
D---------------------------------0-| |------------4------------------------------------0-----0---------| or Part A
A-2---------------------------------| |-----------2-----------------------------------------------------|
E-----------3---------3-------------| |-3-----------------3----------3-------3---------3--------2---2---|


============================================================

Luke David

When playing this song, only hold each note for as long as it ought to be 
played.  Sounds somewhat redundant, but the attraction of this song is the 
lack of sustain to each note, save the transition from Part B to C and the 
entirety of section C...the more punctual and 'one-note-at-a-time' you play 
Part A, the more flowing C will sound, which is the point.


Part A

e-----7-|-----------------|--------------5-|-----------------|--------------7
B---5---|-----------------|------------5---|-----------------|------------5--
G-4-----|-----------------|----------4-----|-----------------|----------4----
D-------|-----------------|----------------|-----------------|---------------
A-------|-----5-----5-----|/7---7~~~-------|-----5-----5-----|/7---7~~~------
E-------|-5-5---3-3---0-0-|---0------------|-5-5---3-3---0-0-|---0-----------


e-----------------|-----------7-5p3p0-|-----------------|--------------7-|
B-----------------|---------5---------|-----------------|------------5---|
G-----------------|-------4-----------|-----------------|----------4-----|
D-----------------|-------------------|-----------------|----------------|
A-----5-----5-----|/7---7-------------|-----5-----5-----|/7---7~~~-------|
E-5-5---3-3---0-0-|---0---------------|-5-5---3-3---0-0-|---0------------|


e-----------------|--------------5-|-----------------|--------------7-|
B-----------------|------------5---|-----------------|------------5---|
G-----5-----4-----|-0---0----4-----|-----5-----4-----|/7---7~~~-4-----|
D-----5-----5-----|-2---2----------|-----5-----5-----|/9---9~~~-------|
A-----------------|----------------|-----------------|----------------|
E-5-5---3-3---0-0-|----------------|-5-5---3-3---0-0-|---0------------|

 
e-----------------|-----------7-5p3p0-|-----------------|
B-----------------|---------5---------|-----------------|
G-----5-----4-----|-0---0-4-----------|-----5-----4-----|
D-----5-----5-----|-2---2-------------|-----5-----5-----|
A-----------------|-------------------|-----------------|
E-5-5---3-3---0-0-|-------------------|-5-5---3-3---0-0-|


Part B

e--0---0-0-----------------|--0---0-0-----------------|
B-/5---3-0-----------------|-/5---3-0-----------------|
G-/4---4-4-----------0-----|-/4---4-4-------------0---|
D----------------2-----2---|----------------2---4-----|
A--------------2---2-------|--------------2---3-------|
E------------0-------------|------------0-------------|
Repeat with variations...on last repeat sustain 
the C5add#4 (last three notes)


Part C

e---------------|---------------|---------------|---------------|
B---0-3-0-3/5---|---0-3-0-3/5---|---0-3-0-3/5---|---3---3-------|
G---0-2-0-2/4---|---0-2-0-2/4---|---0-2-0-2/4---|---2---2-------|
D---------------|---------------|---------------|---0---0-------|
A-2-2-2-2-------|-0-0-0-0-------|---------------|---------------|
E---------------|---------------|-3-3-3-3-------|-0-3---2-------|