Message Board
TR3 - The Left Hand of Darkness
TR3 - On This Mountain Born in Clouds
Tablature

Is Anybody Here
By Tim Reynolds
Tabbed By Jamie McMurrich

Tuning: Standard

Part A
e-------5---------3---------5---------6-
b------9-9--------3--------9-9--------8-
g-----5---5------5--------5---5------8--
d----9----------8--------9----------6---
a---7----------7--------7----------7----
E-0----------0--------0----------0------
 
Part B 
e----0--------0-------0---------------0--------0--- 
b-10--------7------7---------5--5---4--------3----- 
g-9---------9------9---------4--6---4--------4----- 
d----------------------------6--------------------- 
a-------------------------------4---------2------2- 
E-0----0-8--0---7---0---0-5--0------0---0----0----- 
 
Part C 
1)                     2) 
e-----0-------------0- -----0-----------0--------------- 
b---3---3------0---0-- ---3---3-------1---1------------- 
g-6-------6-------1--- -6-------6---4-------4----------- 
d-----------7----2---- -----------7-----------5--------- 
a---------------2----- -----------------------------2---
E-0---0--------0------ -0---0-------0---0-------0-0---0- 

Part D 
e-----------------------------------
b-0--------/7-5---------------------
g-1--------/6---6-------------------
d-----------------------------------
a---4-2p0---0---7-----------7--*12*-
E-0-------3--------0-0-0-7h9-0-*12*-

e---------*12*-------*7*-------*5*---------*12*-------*7*-------*5*-
b-*12**12*-----*7**7*----*5**5*----*12**12*-----*7**7*----*5**5*----
g-------------------------------------------------------------------
d-------------------------------------------------------------------
a-------------------------------------------------------------------
E-------------------------------------------------------------------

e---------*12*-------*7*-------*5*-----
b-*12**12*-----*7**7*----*5**5*--------
g--------------------------------------
d--------------------------------------
a--------------------------------------
E----------------------------------*7*-
Part E 
e----------------------------------0-----------0- 
b---3---3-------2---2-------0---0--0----0---0--0- 
g--2-2-2-2-2-2-2-2-2-2-2-2-2-2-2---1---2-2-2---1- 
d-6---6---6-6-6---6---6-6-6---6-------6---6------ 
a---------------------------------2-----------2-- 
E-0---0---0-0-0---0---0-0-0---0-------0---0------

e----------------------------------0- -----0---------0- 
b---3---3-------2---2-------0---0--0- ---3---3-------0- 
g--2-2-2-2-2-2-2-2-2-2-2-2-2-2-2---1- -6-------6-----1- 
d-6---6-------6---6-------6---6------ -----------7---2- 
a---------4-5---------5-4---------2-- ---------------2- 
E-0---0-------0---0-------0---0------ -0---0-------0--- 

Part F 
e-----0-4--0-------0-4--0-------0-4--0-------0-4--0- 
b----7---7--7-----7---7--7-----7---7--7-----7---7--- 
g---6--6--6--6---6--6--6--6---6--6--6--6---6--6--6-- 
d--4------------4------------4------------4--------- 
a--------------------------------------------------- 
E-6------------6------------5------------5---------- 

e-----0-4--0-----0-4--0------0-4- 
b----7---7------0----0--0---0---- 
g---6--6--6----3--3-3------3--3-- 
d--4----------4-----------4------ 
a-------------------------------- 
E-4----------2-----------2------- 

Part G 
e------- ------- 
b------- ------- 
g------- ------- 
d-4-4-6- -4-4-2- 
a-1-1-2- -1-1-2- 
E-0-0-0- -0-0-0- 

Followed by a short improv. 

Order of song: 
A,B,C1,B,C2,D,D,B,C1,B,C2,D,D,E,E,F,G,improv,B,C1,B,C2,D,D,E,E,A