Message Board
TR3 - The Left Hand of Darkness
TR3 - On This Mountain Born in Clouds
Tablature

Intuition Like a Child
By Tim Reynolds
Tabbed By Mark Schmitz

Tuning: Standard

e------------------------------------------------------------
B---5---3-5-3----------------------------0-----0-------------
G-----5-------5----------2-4-5-4p2---------0-2---2-0-----0---
D---------------5-7----------------5-3-5-------------2-3-----
A---3---------------3----------------------------------------
E---------------------1--------------------------------------


e------------------------
B--------1----------------
G------0-------------0--
D----2-----3/5\3-0-0-----
A--3-------0---0-5-3-----
E------------------------


e---------------------------------------------------3-------3/5----3/5-3--------
B--5---3-5/6-5-3-1-3p1--------------------------0-----0-3-1--------------3\1-1--
G----5-----------------2-----2-4-5-5h7p5-4-2----0-0-----------------------------
D-------------------------------------------------------------------------------
A--3---------------------0-3-----------------0-------------------3--------------
E-------------------------------------------------------------------------------


e------------------------------------------------------------
B---5---3-5-3----------------------------0-----0-------------
G-----5-------5----------2-4-5-4p2---------0-2---2-0-----0---
D---------------5-7----------------5-3-5-------------2-3-----
A---3---------------3----------------------------------------
E---------------------1--------------------------------------


e------------------------
B--------1----------------
G------0-------------0--
D----2-----3/5\3-0-0-----
A--3-------0---0-5-3-----
E------------------------


e------------------------------------------------------2-3-5-----7-8-10---10-8--
B--5---3-5/6-5-3-1-3p1-------------------------0-2-3-5--------------------------
G----5-----------------2-----2-4-5-5h7p5-4-2-------------------0--------0-------
D------------------------------------------------------------0------------------
A--3---------------------0-3-----------------0---0---0---0----------------------
E-------------------------------------------------------------------------------


e----------------------------------0-1p0-----0------------------------------------
B--------------------------1---1-3-------1-3---3p1---0----------------------------
G----------0-------2---2-----0---------------------2-----0---------0---------0-2--
D----0h2-3-----2-5-------0-----------------------------------0h2h3-----0h2h3------
A--3---------3-------3-------------------------------------3---------3------------
E---------------------------------------------------------------------------------

After this it breaks into alot more improv.
That's the basic song you repeast the first couple parts after this last part.