Message Board
TR3 - The Left Hand of Darkness
TR3 - On This Mountain Born in Clouds
Tablature

In Your Eyes
By Tim Reynolds
Tabbed By Mark Schmitz with additions by Eric Ahlstrom

Tuning: Standard

Part A(Repeat 4x)
e----------------------
B----------------------
G-----7---7---7---7----
D---7---6---7---6------
A----------------------
E-------------------0--


Part B(Repeat 2x)
e------------------------------------
B------------------------------------
G---------------------------7-----6--
D---6-6-----6-6-----7-7-----7-----7--
A---7-7-----7-7-----7-7--------------
E-------0-0-----0-0-----0-0---0-0----


Part C
e------------------------------------------------------------
B--------2---2---3-2-0---------2-------2---2---3-2--0---0----
G--1-2-4---2---2-------------2---1-2-4---2---2--------1---1--
D--------------------------2---------------------------------
A--------0---0---0-------4-------------0---0---0--------------
E----------------------0-------------------------------------

e---------------------------------------------
B--2-----2/5-2-3-3p2-0---0--------2--------2--
G----2-2---------------2--------2---2---------
D-----------------------------2----------2----
A---------------------------4----------4------
E---------------------------------------------

e-------------------------0---
B--2--------------------------
G--2-2------------------2-----
D------2-2-2-----2-2--2-------
A--4---------2-2--------------
E-----------------------------

Part D
e-------------------0----------------------2-------0--------
B----3-3-3--------3---------3------------3-------3---3---3--
G----4-4-4------4---------4---4---4----2-------4-------4----
D-----------------------5-------5---------------------------
A--2---------2-----------------------5-------2--------------
E---------------------3-------------------------------------

e--------0------------------
B------3----------3---------
G----4----------4---4---4---
D-------------5-------5-----
A--2------------------------
E-----------3---------------

e-----------------------------------------2-2p0-----
B----------------------3---------3---------------3--
G--2h4-4---4---4-----2---2-----4---4---4------------
D------------------------------------5--------------
A--2-----2---2----5---------------------------------
E---------------------------3-----------------------

e--2-------2-----------------------------
B--3-----3----3h5-5-3-3--------3---------
G--4---4------2--------------4---4---4---
D----4---------------------5-------5-----
A--2----------0-----0--------------------
E------------------------3---------------
I know its not complete but it just goes back into different variations
of this section so mess with it till ya like it.


e---------------------------------------------------
B---------------3-3-2-5-----------------3-3-2-0-----
G---------------2-2-2-4-----------------2-2-2-1-2---
D------------------------0-0-4-5-4-0-0----------2---
A--0-0-4-5-4-0--0-0-0-0-----------------------------
E---------------------------------------------------


e-------------------------------------------
B---------------5-5-3-7------8-8-6-5-3------
G---------------4-4-2-6------7-7-5-4-2------
D------------------------0---0-0-0-0-0------
A--0-0-4-5-4-0--0-0-0-0---------------------
E-------------------------------------------

e-------------------------2-4-5----------------------
B----8-8-7-5-3-----5-5-5--------3-3-3-2-2-0-0h2p0----
G----7-7-6---------4-4-4--------------------------2--
D----------------------------------------------------
A--0-0-0-0-------0-----------------------------------
E----------------------------------------------------

e--5----------------------
B----3-3-3-2-2-0-0h2p0----
G----------------------2--
D-------------------------
A-------------------------
E-------------------------

e------------------------------------------------------------
B--7-8-10-5-5-3-3-3-2-2-0-0h2p0----10-5-5-3-3-3-2-2-0-0h2p0--
G--6-7-9--4-4-------------------2--9--4-4--------------------
D------------------------------------------------------------
A------------------------------------------------------------
E------------------------------------------------------------


(2:17)
"In your eyes..."
e-------|----------------------------|----------
B-3-2-0-|-0-0-0-0---2----------------|----------
G-2-2-1-|-1-1-1-1-2-2------2-2-1-4---|-4-4-/6-6-
D-------|---------2--------2-2-2-4---|-4-4-/7-7-
A-------|----------------------------|----------
E-------|--0-0-0------0/5-0----------|----------
------->| Repeat this part 3 times |

(2:37)
e---------------------
B-5-5-5-5-3-2-0-------
G-4-4-4-4-2-2-1-2-/4--
D---------------2-/4--
A---------------------
E---------------------

Play this part 3 times
e-----------------------------------
B-9-7-9-10-5-5-5-7-5--5-3-2-2-0~----
G-9-7-9-9--4-4-4-7-4--4-2-2-2-1~----
D-----------------------------------
A-----------------------------------
E-----------------------------------