Message Board
TR3 - The Left Hand of Darkness
TR3 - On This Mountain Born in Clouds
Tablature

Helplessly Harnessing
By Tim Reynolds
Tabbed By Mark Schmitz

Tuning: Standard

Part A 
e--------------------------------------------------- 
B----------x---1---3-x------------x----1----3-x----- 
G---4h5bp0-x---2---4-x--2-4/5-5p0-x----2----4-x----- 
D----------x---------x------------x-----------x----- 
A--------------------x------------------------x----- 
E------------1---3-------------------1----3--------- 
 

e----------------------------------------- 
B----------x---1---3-x------------1---3--- 
G---4h5bp0-x---2---4-x--5-4\2-0---2---4--- 
D----------x---------x-------------------- 
A--------------------x-------------------- 
E------------1---3--------------1---3----- 


Section B 
e------------------------------------------------ 
B----3-x---3-x----3-x-3-3/5-x--3---3--3-x-1p0-3-- 
G--0---x---0-x----0-x-------x--4---4--4-x-------- 
D------x-----x------x-------x-----------x-------- 
A------x---2-x--3---x-3-----x-----------x-------- 
E--------3---------------------3-3---3----------- 

 
e----------------------------------------- 
B-----x----3-x----3-x--3p1p0---0---1-x---- 
G-----x----0-x----0-x--------0-----2-x---- 
D-----x------x------x----------------x---- 
A-----x----2-x--3---x----------------x---- 
E--------3-----------------------1-------- 
 

e--------------------------------------------------0-----------0-----------*5- 
B----3-x---3-x----3-x-3-3/5-x--3---3--3-x------x---0-----------0-----------*5- 
G--0---x---0-x----0-x-------x--4---4--4-x----4-x---4-x---------4---------5-*5- 
D------x-----x------x-------x-----------x--2---x---2-x-----0h2-------2h3-3---- 
A------x---2-x--3---x-3-----x-----------x---------3----0-2-------2-3---------- 
E--------3---------------------3-3---3---------------------------------------- 


Part C 
e---------------------------- 
B------------------------5b-- 
G---9-9-7-5-7-5-4-5-4-2------ 
D---7-7-5-3-5-3-2-3-2-0------ 
A-0-------------------------- 
E---------------------------- 


////////////////////////////////////////////////////////////////////////////////////////////
--------------------------------------------------------------------------------------------
\\\\\\\\\\\\\\\\\\\\\\\\\\\\\\\\\\\\\\\\\\\\\\\\\\\\\\\\\\\\\\\\\\\\\\\\\\\\\\\\\\\\\\\\\\\\


Helplessly Harnessing
by Tim Reynolds
tabbed by Chris Moulton

Standard Tuning


e--------------------- 
B--0-1~----------1---- 
G--------------4------ 
D------------0-------- 
A----------2---------- 
E--------3------------ 


e-------------------1-|------------------1-|------------------1-|------------------1- 
B--0-1-----1---1----1-|-0-1--3-----------1-|-0-1-----1---1----1-|-------------1----1- 
G----------0---2------|--------2---2-------|---------0---2------|--5p4p2-0----2------ 
D---------------------|--------------------|--------------------|-------------------- 
A----------------3----|---------------3----|---------------3----|--------2------3---- 
E-------3--3-1--------|----3-----1---------|------3--3-1--------|--3--------1-------- 


e-------------------1-|------------------1-|------------------1-|------------------1- 
B--0-1-----1---1----1-|-0-1--3-----------1-|-0-1-----1---1----1-|3------------1----1- 
G----------0---2------|--------2---2-------|---------0---2------|---4p2--0----2------ 
D---------------------|--------------------|--------------------|-------------------- 
A----------------3----|---------------3----|---------------3----|--------2------3---- 
E-------3--3-1--------|----3-----1---------|------3--3-1--------|---3-------1-------- 

 
e--------------------|--------------------|--------------------|-------------------- 
B----3---3---3--3----|-3-3h5---1----------|--------------------|-------------------- 
G--0-----------------|--------------------|--------------------|-------------------- 
D--------------------|--------------------|--------------------|-------------------- 
A--------2------3----|--------------------|--------------------|-------------------- 
E------3-----1-------|--------------------|--------------------|--------------------