Message Board
TR3 - The Left Hand of Darkness
TR3 - On This Mountain Born in Clouds
Tablature

Do It Yourself
By Tim Reynolds
Tabbed By Mark Schmitz

Tuning: Drop C
Played on a 12-string

Main Riff	>=Very Quick
e----------------------
B----------------------
G-----5>4>5---4---4----
D-----4>3>4---3---3----
A-----5>4>5-4---4------
C-0-0------------------


Fills:
e------------    ----------    -------------------
B--5-6-5-----    ----------    -------------------
G--4-5-4--4-- or -----0---- or ----4---4---4---4--(2x)
D--5-6-5--3--    -5-6------    ----3---3---3---3--
A---------4--    ----------    --4---4---4---4----
C---------0--    -------0--    -------------------


Second Part
e----(0)---(0)--(0)--(0)--
B----(0)---(0)--(0)--(0)--
G-----5-----4----3----2---
D-----4-----3----2----1---
A-------------------------
C-1/3---0-2---1----0------

After playing the second part a few
times add the open notes in ( )

******************************************************

Luke David's take on the verse:

e:-------------------------|
B:-------------------------|
G:---------5-5-----8---8---|
D:---------4-4-----7---7---|
A:---------3-3-----6---6---|
C:-0---0-------0-0---0-----|

With the occasional..
e:-----------------------------------|
B:-----------------------------------|
G:---------5-5---8---10-8-10-8---5---|
D:---------4-4---7---9--7-9--7---4---|
A:---------3-3---6---8--6-8--6---3---|
C:-0---0-------0---------------------|