Message Board
TR3 - The Left Hand of Darkness
TR3 - On This Mountain Born in Clouds
Tablature

After the Goldrush (Neil Young)
By Tim Reynolds
Tabbed By Mark Schmitz

Tuning: Drop D

e---------------------------------------------------------------- 
B--------2-3---3-2---0-----------------------------------x-x-x--- 
G--2-4------------------2-4-2----------------2-2---2-2---x-x-x--- 
D------------------------------4---4---2/4-4-----4-2-2---x-x-x--- 
A----------0--0----0-----------0-------------------4-4---x-x-x--- 
E--------------------------------0---0--------------------------- 

 
e------------------------------------------------------------*5----- 
B----0-2-3---3---2-0----------------------------------------*5------ 
G-2------0-0---0-----2-4-4p2----------------------2--x-x-x-*5------- 
D----------------------------4-----0-0-/4-4-4-2-0----x-x-x---------- 
A-----------------------------------------0-------0--0-x-x---------- 
E------------------------------------------------------------------- 

 
e------------------------------------------------------------- 
B------2-3---3-2---0-----------------------------------2-3-5-- 
G--2-4---------------2-4-2---------------2-2---4-2-----2-2-4-- 
D--------------------------4---4---2/4-4-----4-----2---------- 
A--------0-0-----0---------0-------------------------0-------- 
E----------------------------0---0---------------------------- 

 
e-------------------------------------------------------Strum----- 
B------2-3---3-2---0-----------------------------------2-2-2-2---- 
G--2-4---------------2-4-4p2-----------------------2---2-2-2-2---- 
D----------------------------4-----0-0/4-4-4-2-2-0-----2-2-2-2---- 
A--------0-0-----0-----------------------0---------0-4-----4------ 
E----------------------------------------------------------------- 

 
e------0-~5~5-~5~5-----------------5-7-10-7-5--------------------- 
B--3-5---~5~5-~3~3-2-3-5-3-----3/7------------7-5-7-~8~8-8-5-3---- 
G--------------------------2-----------------------------------4-- 
D----------------------------------------------------------------- 
A----------------------------------------------------------------- 
E------0-----------0---------0------------------------------------ 

 
e---------------------------------------5-5/7-----2-2-- 
B----3-5-----3---0-2-3-5-----3-5----3/7-------5---3-3-- 
G--4-------2---------------4-----2----------------2-2-- 
D---------2--0------------------------------------0-0-- 
A--------2--------------------------------------0------ 
E--------------0---------0---------0------------------- 

 
e---------2-------------------2-------------------------------------- 
B--2-3-5------3---3-2-2-2-3-5-----3-3---2h3p2-----3------------------ 
G--2-2-4----2---4-------2-2-4---2-----4-------2--2-2----------------- 
D---------0-------------------0---------0-------0---0---------------- 
A--0-0-0------------0-0-0-0-0-------------------------5h7p5-4h5p4---- 
E-----------------------------------------------------------------7-- 

 
e----2-0-2--0-2-5-7-0-2-0-2------2-0-2-0-2-5-7-0-2-0-2--------- 
B----2-0-2--0-2-5-7-0-2-0-2---2--2-0-2-0-2-5-7-0-2-0-2-2-3-5--- 
G----------------------------2-------------------------2-2-4--- 
D---------------------------0---------------------------------- 
A--0---------------------------------------------------0-0-0--- 
E-------------------------------------------------------------- 


e--2-----2-0-0-----0--2-----2-0-------------- 
B--3-3---------2-3----3-3-0-3-0-------------- 
G------4----------------4-0------------------ 
D-------------------------------------------- 
A-----------------------------0-------------- 
E-------------------------------------------- 


e---------2---------------------------2---------------------------------- 
B--2-3-5------3---3-2h3p2--2-2-2-3-5------3-3---2h3p2-------------------- 
G--2-2-4----2---4--------2--------------2-----4-------2-2h4p2------------ 
D---------0---------------------------0---------0-------------4-2-4-0---- 
A--0-0-0----------------------------------------------------------------- 
E------------------------------------------------------------------------ 

 
e----2-0-2--0-2-5-7-0-2-0-2------2-0-2-0-2-5-7-0-2-0-2--------- 
B----2-0-2--0-2-5-7-0-2-0-2---2--2-0-2-0-2-5-7-0-2-0-2-2-3-5--- 
G----------------------------2-------------------------2-2-4--- 
D---------------------------0---------------------------------- 
A--0---------------------------------------------------0-0-0--- 
E-------------------------------------------------------------- 

 
e--2-----2-0-0-----0--2-----2-0-----2-----------2-----2-0-0-----0-- 
B--3-3---------2-3----3-3-0-3-0----3-3-3/5-5-5--3-3---------2-3---- 
G------4----------------4-0-------4----4/6-6-6------4-------------- 
D--------------------------------0--------------------------------- 
A-----------------------------0------------------------------------ 
E------------------------------------------------------------------ 

 
e--2-----2-0-----2--- 
B--3-3-0-3-0----3-3-- 
G----4-0-------4----- 
D-------------0------ 
A----------0--------- 
E-------------------- 


If you have a dd3 or dd5 or any other 
delay that continuously repeats play this 
and hold through out the next part.
 
e----------------- 
B----------------- 
G---\/\/\/\/------this is just where he 
D---\/\/\/\/------scratchs those two strings 
A-----------------with his right hand 
E----------------- 

 
Pluck each pair of notes(use a volume pedal if you have one) 
e----0-0-2-2-2-0-0-0-----------0-2-2-2-2-0-0---0---0-0-2-2-2-3-3-2-2-0-- 
B--3-3-3-3-3-3-3-3-3-3-3-3-3-3-3-3-3-3-3-3-3-3-3-3-3-3-3-3-3-3-3-3-3-3-- 
G--4-----------------4-4-4-4-4---------------4---4---------------------- 
D----------------------------------------------------------------------- 
A----------------------------------------------------------------------- 
E----------------------------------------------------------------------- 

 
e---0-0-0-2-----2-0-- 
B---3-3-3-3-3-0------ 
G-----------4-------- 
D-------------------- 
A-------------------- 
E-------------------- 

 
e------2-5-7-5-----2---2-0---0-----2-5----0---- 
B-------------7---3----3-3-3-3-3-3-3-3-3-3----- 
G----4-----------4----4----4---4-4-----4------- 
D---4-----------4----4-0-0---0-----0-0--------- 
A--2-----------2----2-------------------------- 
E---------------------------------------------- 


e------------------------------------------------- 
B------5-----5----5----5-------5-----5-----5------ This little thing only 
G----------0----0----0---0---------0-----0-----0-- lasted 5 seconds 
D----5---4----2----4---------5---4-----2-----4---- But its my favorite part 
A--3-----------------------3---------------------- to play in the song 
E------------------------------------------------- 
 

e---------2-2-2-3-3--0-0------0--0-0-2-2-2-3-3-2-2-0-0----------------------- 
B--3-3-3--3-3-3-3-3--3-3-3-3--3--3-3-3-3-3-3-3-3-3-3-3-------------5--------- 
G--4-4-4-----------------4-4-----------------------------------------0------- 
D------------------------------------------------------------5-4h5-----2----- 
A---------------------------------------------------------3------------------ 
E---------------------------------------------------------------------------- 

 
e---------2-2-2-3-3--0-0------0--0-0-2-2-2---2------------ 
B--3-3-3--3-3-3-3-3--3-3-3-3--3--3-3-3-3-3-3---3-3--3--3-- 
G--4-4-4-----------------4-4-----------------------4--4--- 
D-------------------------------------------------0--0---- 
A--------------------------------------------------------- 
E--------------------------------------------------------- 

 
e---------------- 
B---------------- 
G---\/\/\/\/-----then that scratch thing again 
D---\/\/\/\/----- 
A---------------- 
E---------------- 

 
Pluck each pair of notes (use a volume pedal if you have one) 
e----0-0-2-2-2-0-0-0-----------0-2-2-2-2-0-0---0---0-0-2-2-2-3-3-2-2-0-- 
B--3-3-3-3-3-3-3-3-3-3-3-3-3-3-3-3-3-3-3-3-3-3-3-3-3-3-3-3-3-3-3-3-3-3-- 
G--4-----------------4-4-4-4-4---------------4---4---------------------- 
D----------------------------------------------------------------------- 
A----------------------------------------------------------------------- 
E----------------------------------------------------------------------- 

 
e---0-0-0-2-----2-0-- 
B---3-3-3-3-3-0------ 
G-----------4-------- 
D-------------------- 
A-------------------- 
E-------------------- 

 
e------2-5-7-5----2-----2-0---0-----2-5----0---- 
B-------------7---3-----3-3-3-3-3-3-3-3-3-3----- 
G----4-----------4----4-----4---4-4-----4------- 
D---4-----------4----4--0-0---0-----0-0--------- 
A--2-----------2----2--------------------------- 
E----------------------------------------------- 

 
e----------------------------- 
B------5---------5---5--5----- 
G----------0-----0---0-------- a slower var. of 
D----5---4-----5---4----2----- the other part 
A--3---------3---------------- 
E----------------------------- 

 
e---------2-2-2-3-3--0-0------0--0-0-2-2-2-3-3-2-2-0-0---------------------- 
B--3-3-3--3-3-3-3-3--3-3-3-3--3--3-3-3-3-3-3-3-3-3-3-3-----------5-5-5------ 
G--4-4-4-----------------4-4-----------------------------------0------------ 
D------------------------------------------------------------5---------5---- 
A---------------------------------------------------------3--------------3-- 
E--------------------------------------------------------------------------- 

 
e---------2-2-2-3-3--0-0------0--0-0-2-2-2---2-------------------2-- 
B--3-3-3--3-3-3-3-3--3-3-3-3--3--3-3-3-3-3-3---3-3--3--3--3--3---3-- 
G--4-4-4-----------------4-4-----------------------4--4--4--4--4-4-- 
D-------------------------------------------------0--0--0--0--0--0-- 
A------------------------------------------------------------------- 
E-------------------------------------------------------------------